  0
SECTION
  2
HEADER
  9
$ACADVER
  1
AC1015
  9
$ACADMAINTVER
 70
     6
  9
$DWGCODEPAGE
  3
ANSI_1254
  9
$INSBASE
 10
0.0
 20
0.0
 30
0.0
  9
$EXTMIN
 10
0.0
 20
0.0
 30
0.0
  9
$EXTMAX
 10
279.4
 20
215.9
 30
0.0
  9
$LIMMIN
 10
0.0
 20
0.0
  9
$LIMMAX
 10
279.4
 20
215.9
  9
$ORTHOMODE
 70
     0
  9
$REGENMODE
 70
     1
  9
$FILLMODE
 70
     1
  9
$QTEXTMODE
 70
     0
  9
$MIRRTEXT
 70
     1
  9
$LTSCALE
 40
1.0
  9
$ATTMODE
 70
     1
  9
$TEXTSIZE
 40
3.5
  9
$TRACEWID
 40
1.0
  9
$TEXTSTYLE
  7
Standard
  9
$CLAYER
  8
0
  9
$CELTYPE
  6
ByLayer
  9
$CECOLOR
 62
   256
  9
$CELTSCALE
 40
1.0
  9
$DISPSILH
 70
     0
  9
$DIMSCALE
 40
1.0
  9
$DIMASZ
 40
3.5
  9
$DIMEXO
 40
1.0
  9
$DIMDLI
 40
3.75
  9
$DIMRND
 40
0.0
  9
$DIMDLE
 40
0.0
  9
$DIMEXE
 40
1.0
  9
$DIMTP
 40
0.0
  9
$DIMTM
 40
0.0
  9
$DIMTXT
 40
3.5
  9
$DIMCEN
 40
2.5
  9
$DIMTSZ
 40
0.0
  9
$DIMTOL
 70
     0
  9
$DIMLIM
 70
     0
  9
$DIMTIH
 70
     1
  9
$DIMTOH
 70
     1
  9
$DIMSE1
 70
     0
  9
$DIMSE2
 70
     0
  9
$DIMTAD
 70
     1
  9
$DIMZIN
 70
     0
  9
$DIMBLK
  1

  9
$DIMASO
 70
     1
  9
$DIMSHO
 70
     1
  9
$DIMPOST
  1

  9
$DIMAPOST
  1

  9
$DIMALT
 70
     0
  9
$DIMALTD
 70
     3
  9
$DIMALTF
 40
0.0393700787
  9
$DIMLFAC
 40
1.0
  9
$DIMTOFL
 70
     1
  9
$DIMTVP
 40
0.0
  9
$DIMTIX
 70
     0
  9
$DIMSOXD
 70
     0
  9
$DIMSAH
 70
     0
  9
$DIMBLK1
  1

  9
$DIMBLK2
  1

  9
$DIMSTYLE
  2
ISO-25
  9
$DIMCLRD
 70
     0
  9
$DIMCLRE
 70
     0
  9
$DIMCLRT
 70
     0
  9
$DIMTFAC
 40
1.0
  9
$DIMGAP
 40
1.524
  9
$DIMJUST
 70
     0
  9
$DIMSD1
 70
     0
  9
$DIMSD2
 70
     0
  9
$DIMTOLJ
 70
     0
  9
$DIMTZIN
 70
     0
  9
$DIMALTZ
 70
     0
  9
$DIMALTTZ
 70
     0
  9
$DIMUPT
 70
     0
  9
$DIMDEC
 70
     2
  9
$DIMTDEC
 70
     2
  9
$DIMALTU
 70
     2
  9
$DIMALTTD
 70
     3
  9
$DIMTXSTY
  7
Standard
  9
$DIMAUNIT
 70
     0
  9
$DIMADEC
 70
     2
  9
$DIMALTRND
 40
0.0
  9
$DIMAZIN
 70
     0
  9
$DIMDSEP
 70
    44
  9
$DIMATFIT
 70
     3
  9
$DIMFRAC
 70
     0
  9
$DIMLDRBLK
  1

  9
$DIMLUNIT
 70
     2
  9
$DIMLWD
 70
    -2
  9
$DIMLWE
 70
    -2
  9
$DIMTMOVE
 70
     0
  9
$LUNITS
 70
     2
  9
$LUPREC
 70
     2
  9
$SKETCHINC
 40
1.0
  9
$FILLETRAD
 40
10.0
  9
$AUNITS
 70
     0
  9
$AUPREC
 70
     2
  9
$MENU
  1
.
  9
$ELEVATION
 40
0.0
  9
$PELEVATION
 40
0.0
  9
$THICKNESS
 40
0.0
  9
$LIMCHECK
 70
     0
  9
$CHAMFERA
 40
0.0
  9
$CHAMFERB
 40
0.0
  9
$CHAMFERC
 40
0.0
  9
$CHAMFERD
 40
0.0
  9
$SKPOLY
 70
     0
  9
$TDCREATE
 40
2459948.579399178
  9
$TDUCREATE
 40
2459948.454399178
  9
$TDUPDATE
 40
2459948.579399364
  9
$TDUUPDATE
 40
2459948.454399364
  9
$TDINDWG
 40
0.0000000116
  9
$TDUSRTIMER
 40
0.0000000116
  9
$USRTIMER
 70
     1
  9
$ANGBASE
 50
0.0
  9
$ANGDIR
 70
     0
  9
$PDMODE
 70
     0
  9
$PDSIZE
 40
-1.0
  9
$PLINEWID
 40
0.0
  9
$SPLFRAME
 70
     0
  9
$SPLINETYPE
 70
     6
  9
$SPLINESEGS
 70
     8
  9
$HANDSEED
  5
16A
  9
$SURFTAB1
 70
     6
  9
$SURFTAB2
 70
     6
  9
$SURFTYPE
 70
     6
  9
$SURFU
 70
     6
  9
$SURFV
 70
     6
  9
$UCSBASE
  2

  9
$UCSNAME
  2

  9
$UCSORG
 10
0.0
 20
0.0
 30
0.0
  9
$UCSXDIR
 10
1.0
 20
0.0
 30
0.0
  9
$UCSYDIR
 10
0.0
 20
1.0
 30
0.0
  9
$UCSORTHOREF
  2

  9
$UCSORTHOVIEW
 70
     0
  9
$UCSORGTOP
 10
0.0
 20
0.0
 30
0.0
  9
$UCSORGBOTTOM
 10
0.0
 20
0.0
 30
0.0
  9
$UCSORGLEFT
 10
0.0
 20
0.0
 30
0.0
  9
$UCSORGRIGHT
 10
0.0
 20
0.0
 30
0.0
  9
$UCSORGFRONT
 10
0.0
 20
0.0
 30
0.0
  9
$UCSORGBACK
 10
0.0
 20
0.0
 30
0.0
  9
$PUCSBASE
  2

  9
$PUCSNAME
  2

  9
$PUCSORG
 10
0.0
 20
0.0
 30
0.0
  9
$PUCSXDIR
 10
1.0
 20
0.0
 30
0.0
  9
$PUCSYDIR
 10
0.0
 20
1.0
 30
0.0
  9
$PUCSORTHOREF
  2

  9
$PUCSORTHOVIEW
 70
     0
  9
$PUCSORGTOP
 10
0.0
 20
0.0
 30
0.0
  9
$PUCSORGBOTTOM
 10
0.0
 20
0.0
 30
0.0
  9
$PUCSORGLEFT
 10
0.0
 20
0.0
 30
0.0
  9
$PUCSORGRIGHT
 10
0.0
 20
0.0
 30
0.0
  9
$PUCSORGFRONT
 10
0.0
 20
0.0
 30
0.0
  9
$PUCSORGBACK
 10
0.0
 20
0.0
 30
0.0
  9
$USERI1
 70
     0
  9
$USERI2
 70
     0
  9
$USERI3
 70
     0
  9
$USERI4
 70
     0
  9
$USERI5
 70
     0
  9
$USERR1
 40
0.0
  9
$USERR2
 40
0.0
  9
$USERR3
 40
0.0
  9
$USERR4
 40
0.0
  9
$USERR5
 40
0.0
  9
$WORLDVIEW
 70
     1
  9
$SHADEDGE
 70
     3
  9
$SHADEDIF
 70
    70
  9
$TILEMODE
 70
     1
  9
$MAXACTVP
 70
    64
  9
$PINSBASE
 10
0.0
 20
0.0
 30
0.0
  9
$PLIMCHECK
 70
     0
  9
$PEXTMIN
 10
1.0000000000E+20
 20
1.0000000000E+20
 30
1.0000000000E+20
  9
$PEXTMAX
 10
-1.0000000000E+20
 20
-1.0000000000E+20
 30
-1.0000000000E+20
  9
$PLIMMIN
 10
0.0
 20
0.0
  9
$PLIMMAX
 10
420.0
 20
297.0
  9
$UNITMODE
 70
     0
  9
$VISRETAIN
 70
     1
  9
$PLINEGEN
 70
     0
  9
$PSLTSCALE
 70
     1
  9
$TREEDEPTH
 70
  3020
  9
$CMLSTYLE
  2
Standard
  9
$CMLJUST
 70
     0
  9
$CMLSCALE
 40
20.0
  9
$PROXYGRAPHICS
 70
     1
  9
$MEASUREMENT
 70
     1
  9
$CELWEIGHT
370
    -1
  9
$ENDCAPS
280
     0
  9
$JOINSTYLE
280
     0
  9
$LWDISPLAY
290
     1
  9
$INSUNITS
 70
     4
  9
$HYPERLINKBASE
  1

  9
$STYLESHEET
  1

  9
$XEDIT
290
     1
  9
$CEPSNTYPE
380
     0
  9
$PSTYLEMODE
290
     1
  9
$FINGERPRINTGUID
  2
{3f87cf73-4d92-4424-8675-652a6eded074}
  9
$VERSIONGUID
  2
{FAEB1C32-E019-11D5-929B-00C0DF256EC4}
  9
$EXTNAMES
290
     1
  9
$PSVPSCALE
 40
0.0
  9
$OLESTARTUP
290
     0
  0
ENDSEC
  0
SECTION
  2
CLASSES
  0
CLASS
  1
ACDBDICTIONARYWDFLT
  2
AcDbDictionaryWithDefault
  3
ObjectDBX Classes
 90
        0
280
     0
281
     0
  0
CLASS
  1
VISUALSTYLE
  2
AcDbVisualStyle
  3
ObjectDBX Classes
 90
     4095
280
     0
281
     0
  0
CLASS
  1
MATERIAL
  2
AcDbMaterial
  3
ObjectDBX Classes
 90
     1153
280
     0
281
     0
  0
CLASS
  1
SCALE
  2
AcDbScale
  3
ObjectDBX Classes
 90
     1153
280
     0
281
     0
  0
CLASS
  1
TABLESTYLE
  2
AcDbTableStyle
  3
ObjectDBX Classes
 90
     4095
280
     0
281
     0
  0
CLASS
  1
MLEADERSTYLE
  2
AcDbMLeaderStyle
  3
ACDB_MLEADERSTYLE_CLASS
 90
     4095
280
     0
281
     0
  0
CLASS
  1
SUN
  2
AcDbSun
  3
SCENEOE
 90
     1153
280
     0
281
     0
  0
CLASS
  1
ACDBPLACEHOLDER
  2
AcDbPlaceHolder
  3
ObjectDBX Classes
 90
        0
280
     0
281
     0
  0
CLASS
  1
LAYOUT
  2
AcDbLayout
  3
ObjectDBX Classes
 90
        0
280
     0
281
     0
  0
ENDSEC
  0
SECTION
  2
TABLES
  0
TABLE
  2
VPORT
  5
8
330
0
100
AcDbSymbolTable
 70
     1
  0
VPORT
  5
29
330
8
100
AcDbSymbolTableRecord
100
AcDbViewportTableRecord
  2
*Active
 70
     0
 10
0.0
 20
0.0
 11
1.0
 21
1.0
 12
139.7
 22
107.95
 13
0.0
 23
0.0
 14
10.0
 24
10.0
 15
10.0
 25
10.0
 16
0.0
 26
0.0
 36
1.0
 17
0.0
 27
0.0
 37
0.0
 40
215.9
 41
1.2941176471
 42
50.0
 43
0.0
 44
0.0
 50
0.0
 51
0.0
 71
     0
 72
  2000
 73
     1
 74
     3
 75
     0
 76
     0
 77
     0
 78
     0
281
     0
 65
     1
110
0.0
120
0.0
130
0.0
111
1.0
121
0.0
131
0.0
112
0.0
122
1.0
132
0.0
 79
     0
146
0.0
  0
ENDTAB
  0
TABLE
  2
LTYPE
  5
5
330
0
100
AcDbSymbolTable
 70
     6
  0
LTYPE
  5
14
330
5
100
AcDbSymbolTableRecord
100
AcDbLinetypeTableRecord
  2
ByBlock
 70
     0
  3

 72
    65
 73
     0
 40
0.0
  0
LTYPE
  5
15
330
5
100
AcDbSymbolTableRecord
100
AcDbLinetypeTableRecord
  2
ByLayer
 70
     0
  3

 72
    65
 73
     0
 40
0.0
  0
LTYPE
  5
16
330
5
100
AcDbSymbolTableRecord
100
AcDbLinetypeTableRecord
  2
Continuous
 70
     0
  3
Solid line
 72
    65
 73
     0
 40
0.0
  0
LTYPE
  5
6E
330
5
100
AcDbSymbolTableRecord
100
AcDbLinetypeTableRecord
  2
HIDDEN
 70
     0
  3
Hidden __ __ __ __ __ __ __ __ __ __ __ __ __ __
 72
    65
 73
     2
 40
1.905
 49
1.27
 74
     0
 49
-0.635
 74
     0
  0
LTYPE
  5
6F
330
5
100
AcDbSymbolTableRecord
100
AcDbLinetypeTableRecord
  2
PHANTOM
 70
     0
  3
Phantom ______  __  __  ______  __  __  ______
 72
    65
 73
     6
 40
12.7
 49
6.35
 74
     0
 49
-1.27
 74
     0
 49
1.27
 74
     0
 49
-1.27
 74
     0
 49
1.27
 74
     0
 49
-1.27
 74
     0
  0
LTYPE
  5
70
330
5
100
AcDbSymbolTableRecord
100
AcDbLinetypeTableRecord
  2
CENTER
 70
     0
  3
Center ____ _ ____ _ ____ _ ____ _ ____ _ ____
 72
    65
 73
     4
 40
10.16
 49
6.35
 74
     0
 49
-1.27
 74
     0
 49
1.27
 74
     0
 49
-1.27
 74
     0
  0
LTYPE
  5
71
330
5
100
AcDbSymbolTableRecord
100
AcDbLinetypeTableRecord
  2
CENTERX2
 70
     0
  3
Center (2x) ________  __  ________  __  _____
 72
    65
 73
     4
 40
20.32
 49
12.7
 74
     0
 49
-2.54
 74
     0
 49
2.54
 74
     0
 49
-2.54
 74
     0
  0
LTYPE
  5
72
330
5
100
AcDbSymbolTableRecord
100
AcDbLinetypeTableRecord
  2
DOT2
 70
     0
  3
Dot (.5x) ........................................
 72
    65
 73
     2
 40
0.635
 49
0.0
 74
     0
 49
-0.635
 74
     0
  0
ENDTAB
  0
TABLE
  2
LAYER
  5
2
330
0
100
AcDbSymbolTable
 70
    17
  0
LAYER
  5
10
330
2
100
AcDbSymbolTableRecord
100
AcDbLayerTableRecord
  2
0
 70
     0
 62
     7
  6
Continuous
370
    -3
390
F
  0
LAYER
  5
73
330
2
100
AcDbSymbolTableRecord
100
AcDbLayerTableRecord
  2
FORMAT
 70
     0
 62
     7
  6
Continuous
370
    -3
390
F
  0
LAYER
  5
74
330
2
100
AcDbSymbolTableRecord
100
AcDbLayerTableRecord
  2
YARDIMCI_GEOMETRI
 70
     0
 62
    -6
  6
Continuous
290
     0
370
    -3
390
F
  0
LAYER
  5
75
330
2
100
AcDbSymbolTableRecord
100
AcDbLayerTableRecord
  2
SAYFA_CERCEVESI
 70
     0
 62
     7
  6
Continuous
370
    25
390
F
  0
LAYER
  5
76
330
2
100
AcDbSymbolTableRecord
100
AcDbLayerTableRecord
  2
ANTET
 70
     0
 62
     7
  6
Continuous
370
    -3
390
F
  0
LAYER
  5
77
330
2
100
AcDbSymbolTableRecord
100
AcDbLayerTableRecord
  2
OLCU
 70
     0
 62
   150
  6
Continuous
370
    -3
390
F
  0
LAYER
  5
78
330
2
100
AcDbSymbolTableRecord
100
AcDbLayerTableRecord
  2
METIN
 70
     0
 62
    96
  6
Continuous
370
    -3
390
F
  0
LAYER
  5
79
330
2
100
AcDbSymbolTableRecord
100
AcDbLayerTableRecord
  2
BALON
 70
     0
 62
     5
  6
Continuous
370
    -3
390
F
  0
LAYER
  5
7A
330
2
100
AcDbSymbolTableRecord
100
AcDbLayerTableRecord
  2
VURGU
 70
     0
 62
     7
  6
Continuous
370
    -3
390
F
  0
LAYER
  5
7B
330
2
100
AcDbSymbolTableRecord
100
AcDbLayerTableRecord
  2
SILIK
 70
     0
 62
     7
  6
Continuous
370
    -3
390
F
  0
LAYER
  5
7C
330
2
100
AcDbSymbolTableRecord
100
AcDbLayerTableRecord
  2
MODEL
 70
     0
 62
     7
  6
Continuous
370
    -3
390
F
  0
LAYER
  5
7D
330
2
100
AcDbSymbolTableRecord
100
AcDbLayerTableRecord
  2
DETAYLANDıRMA
 70
     0
 62
   190
  6
Continuous
370
    -3
390
F
  0
LAYER
  5
7E
330
2
100
AcDbSymbolTableRecord
100
AcDbLayerTableRecord
  2
TOLERANS
 70
     0
 62
   230
  6
Continuous
370
    -3
390
F
  0
LAYER
  5
7F
330
2
100
AcDbSymbolTableRecord
100
AcDbLayerTableRecord
  2
MERKEZ_CIZGILERI
 70
     0
 62
    30
  6
Continuous
370
    -3
390
F
  0
LAYER
  5
80
330
2
100
AcDbSymbolTableRecord
100
AcDbLayerTableRecord
  2
KESIT-DETAY_CIZGILERI
 70
     0
 62
     7
  6
Continuous
370
    -3
390
F
  0
LAYER
  5
81
330
2
100
AcDbSymbolTableRecord
100
AcDbLayerTableRecord
  2
\U+041E\U+0421\U+0415\U+0412\U+042B\U+0415
 70
     0
 62
     7
  6
Continuous
370
    -3
390
F
  0
LAYER
  5
82
330
2
100
AcDbSymbolTableRecord
100
AcDbLayerTableRecord
  2
\U+0412\U+041E\U+0414\U+042F\U+041D\U+042B\U+0415_\U+0417\U+041D\U+0410\U+041A\U+0418
 70
     0
 62
    11
  6
Continuous
370
    -3
390
F
  0
ENDTAB
  0
TABLE
  2
STYLE
  5
3
330
0
100
AcDbSymbolTable
 70
     1
  0
STYLE
  5
11
330
3
100
AcDbSymbolTableRecord
100
AcDbTextStyleTableRecord
  2
Standard
 70
     0
 40
0.0
 41
1.0
 50
0.0
 71
     0
 42
3.5
  3
txt
  4

  0
ENDTAB
  0
TABLE
  2
VIEW
  5
6
330
0
100
AcDbSymbolTable
 70
     0
  0
ENDTAB
  0
TABLE
  2
UCS
  5
7
330
0
100
AcDbSymbolTable
 70
     0
  0
ENDTAB
  0
TABLE
  2
APPID
  5
9
330
0
100
AcDbSymbolTable
 70
     1
  0
APPID
  5
12
330
9
100
AcDbSymbolTableRecord
100
AcDbRegAppTableRecord
  2
ACAD
 70
     0
  0
ENDTAB
  0
TABLE
  2
DIMSTYLE
  5
A
330
0
100
AcDbSymbolTable
 70
     1
100
AcDbDimStyleTable
  0
DIMSTYLE
105
27
330
A
100
AcDbSymbolTableRecord
100
AcDbDimStyleTableRecord
  2
ISO-25
 70
     0
 41
2.5
 42
0.625
 43
3.75
 44
1.25
 73
     0
 74
     0
 77
     1
 78
     8
140
2.5
141
2.5
143
0.0393700787
147
0.625
171
     3
172
     1
178
     0
271
     2
272
     2
274
     3
278
    44
283
     0
284
     8
340
11
  0
ENDTAB
  0
TABLE
  2
BLOCK_RECORD
  5
1
330
0
100
AcDbSymbolTable
 70
     2
  0
BLOCK_RECORD
  5
1F
330
1
100
AcDbSymbolTableRecord
100
AcDbBlockTableRecord
  2
*Model_Space
340
22
  0
BLOCK_RECORD
  5
1B
330
1
100
AcDbSymbolTableRecord
100
AcDbBlockTableRecord
  2
*Paper_Space
340
1E
  0
BLOCK_RECORD
  5
23
330
1
100
AcDbSymbolTableRecord
100
AcDbBlockTableRecord
  2
*Paper_Space0
340
26
  0
BLOCK_RECORD
  5
8E
330
1
100
AcDbSymbolTableRecord
100
AcDbBlockTableRecord
  2
SW_CENTERMARKSYMBOL_0
340
0
102
{BLKREFS
331
99
102
}
  0
ENDTAB
  0
ENDSEC
  0
SECTION
  2
BLOCKS
  0
BLOCK
  5
20
330
1F
100
AcDbEntity
  8
0
100
AcDbBlockBegin
  2
*Model_Space
 70
     0
 10
0.0
 20
0.0
 30
0.0
  3
*Model_Space
  1

  0
ENDBLK
  5
21
330
1F
100
AcDbEntity
  8
0
100
AcDbBlockEnd
  0
BLOCK
  5
1C
330
1B
100
AcDbEntity
 67
     1
  8
0
100
AcDbBlockBegin
  2
*Paper_Space
 70
     0
 10
0.0
 20
0.0
 30
0.0
  3
*Paper_Space
  1

  0
ENDBLK
  5
1D
330
1B
100
AcDbEntity
 67
     1
  8
0
100
AcDbBlockEnd
  0
BLOCK
  5
24
330
23
100
AcDbEntity
  8
0
100
AcDbBlockBegin
  2
*Paper_Space0
 70
     0
 10
0.0
 20
0.0
 30
0.0
  3
*Paper_Space0
  1

  0
ENDBLK
  5
25
330
23
100
AcDbEntity
  8
0
100
AcDbBlockEnd
  0
BLOCK
  5
8F
330
8E
100
AcDbEntity
  8
0
100
AcDbBlockBegin
  2
SW_CENTERMARKSYMBOL_0
 70
     0
 10
0.0
 20
0.0
 30
0.0
  3
SW_CENTERMARKSYMBOL_0
  1

  0
LINE
  5
91
330
8E
100
AcDbEntity
  8
FORMAT
 62
     0
100
AcDbLine
 10
0.0
 20
0.0
 30
0.0
 11
0.0
 21
2.5
 31
0.0
  0
LINE
  5
92
330
8E
100
AcDbEntity
  8
FORMAT
 62
     0
100
AcDbLine
 10
0.0
 20
0.0
 30
0.0
 11
-2.5
 21
0.0
 31
0.0
  0
LINE
  5
93
330
8E
100
AcDbEntity
  8
FORMAT
 62
     0
100
AcDbLine
 10
0.0
 20
0.0
 30
0.0
 11
0.0
 21
-2.5
 31
0.0
  0
LINE
  5
94
330
8E
100
AcDbEntity
  8
FORMAT
 62
     0
100
AcDbLine
 10
0.0
 20
0.0
 30
0.0
 11
2.5
 21
0.0
 31
0.0
  0
LINE
  5
95
330
8E
100
AcDbEntity
  8
FORMAT
 62
     0
100
AcDbLine
 10
0.0
 20
5.0
 30
0.0
 11
0.0
 21
27.5
 31
0.0
  0
LINE
  5
96
330
8E
100
AcDbEntity
  8
FORMAT
 62
     0
100
AcDbLine
 10
-5.0
 20
0.0
 30
0.0
 11
-27.5
 21
0.0
 31
0.0
  0
LINE
  5
97
330
8E
100
AcDbEntity
  8
FORMAT
 62
     0
100
AcDbLine
 10
0.0
 20
-5.0
 30
0.0
 11
0.0
 21
-27.5
 31
0.0
  0
LINE
  5
98
330
8E
100
AcDbEntity
  8
FORMAT
 62
     0
100
AcDbLine
 10
5.0
 20
0.0
 30
0.0
 11
27.5
 21
0.0
 31
0.0
  0
ENDBLK
  5
90
330
8E
100
AcDbEntity
  8
0
100
AcDbBlockEnd
  0
ENDSEC
  0
SECTION
  2
ENTITIES
  0
CIRCLE
  5
83
330
1F
100
AcDbEntity
  8
0
  6
Continuous
 62
     7
370
    25
100
AcDbCircle
 10
139.8323425481
 20
108.7440552885
 30
0.0
 40
20.40000000000001
  0
CIRCLE
  5
84
330
1F
100
AcDbEntity
  8
0
  6
Continuous
 62
     7
370
    25
100
AcDbCircle
 10
139.8323425481
 20
108.7440552885
 30
0.0
 40
25.00000000000001
  0
CIRCLE
  5
85
330
1F
100
AcDbEntity
  8
0
  6
Continuous
 62
     7
370
    25
100
AcDbCircle
 10
139.8323425481
 20
108.7440552885
 30
0.0
 40
17.00000000000003
  0
CIRCLE
  5
86
330
1F
100
AcDbEntity
  8
0
  6
Continuous
 62
     7
370
    25
100
AcDbCircle
 10
139.8323425481
 20
108.7440552885
 30
0.0
 40
27.00000000000001
  0
CIRCLE
  5
87
330
1F
100
AcDbEntity
  8
0
  6
Continuous
 62
     7
370
    25
100
AcDbCircle
 10
139.8323425481
 20
108.7440552885
 30
0.0
 40
27.50000000000001
  0
LINE
  5
88
330
1F
100
AcDbEntity
  8
0
  6
Continuous
 62
     7
370
    25
100
AcDbLine
 10
109.8323425481
 20
126.0645633642
 30
0.0
 11
109.8323425481
 21
91.4235472128
 31
0.0
  0
LINE
  5
89
330
1F
100
AcDbEntity
  8
0
  6
Continuous
 62
     7
370
    25
100
AcDbLine
 10
139.8323425481
 20
143.3850714398
 30
0.0
 11
109.8323425481
 21
126.0645633642
 31
0.0
  0
LINE
  5
8A
330
1F
100
AcDbEntity
  8
0
  6
Continuous
 62
     7
370
    25
100
AcDbLine
 10
169.8323425481
 20
91.4235472128
 30
0.0
 11
169.8323425481
 21
126.0645633642
 31
0.0
  0
LINE
  5
8B
330
1F
100
AcDbEntity
  8
0
  6
Continuous
 62
     7
370
    25
100
AcDbLine
 10
169.8323425481
 20
126.0645633642
 30
0.0
 11
139.8323425481
 21
143.3850714398
 31
0.0
  0
LINE
  5
8C
330
1F
100
AcDbEntity
  8
0
  6
Continuous
 62
     7
370
    25
100
AcDbLine
 10
139.8323425481
 20
74.1030391371
 30
0.0
 11
169.8323425481
 21
91.4235472128
 31
0.0
  0
LINE
  5
8D
330
1F
100
AcDbEntity
  8
0
  6
Continuous
 62
     7
370
    25
100
AcDbLine
 10
109.8323425481
 20
91.4235472128
 30
0.0
 11
139.8323425481
 21
74.1030391371
 31
0.0
  0
INSERT
  5
99
330
1F
100
AcDbEntity
  8
FORMAT
 62
     7
100
AcDbBlockReference
  2
SW_CENTERMARKSYMBOL_0
 10
139.8323425481
 20
108.7440552885
 30
0.0
  0
LINE
  5
9A
330
1F
100
AcDbEntity
  8
0
  6
Continuous
 62
     7
370
    25
100
AcDbLine
 10
167.3323425481
 20
212.7677014076
 30
0.0
 11
167.3323425481
 21
238.2677014076
 31
0.0
  0
LINE
  5
9B
330
1F
100
AcDbEntity
  8
0
  6
Continuous
 62
     7
370
    25
100
AcDbLine
 10
112.3323425481
 20
238.2677014076
 30
0.0
 11
112.3323425481
 21
212.7677014076
 31
0.0
  0
ARC
  5
9C
330
1F
100
AcDbEntity
  8
0
  6
Continuous
 62
     7
370
    25
100
AcDbCircle
 10
166.8323425481
 20
238.2677014076
 30
0.0
 40
0.5
100
AcDbArc
 50
0.0
 51
90.0
  0
ARC
  5
9D
330
1F
100
AcDbEntity
  8
0
  6
Continuous
 62
     7
370
    25
100
AcDbCircle
 10
112.8323425481
 20
238.2677014076
 30
0.0
 40
0.5
100
AcDbArc
 50
90.0
 51
180.0
  0
LINE
  5
9E
330
1F
100
AcDbEntity
  8
0
  6
Continuous
 62
     7
370
    25
100
AcDbLine
 10
164.8323425481
 20
238.7677014076
 30
0.0
 11
164.8323425481
 21
295.7677014076
 31
0.0
  0
LINE
  5
9F
330
1F
100
AcDbEntity
  8
0
  6
Continuous
 62
     7
370
    25
100
AcDbLine
 10
114.8323425481
 20
295.7677014076
 30
0.0
 11
114.8323425481
 21
238.7677014076
 31
0.0
  0
LINE
  5
A0
330
1F
100
AcDbEntity
  8
0
  6
Continuous
 62
     7
370
    25
100
AcDbLine
 10
115.9323425481
 20
184.7677014076
 30
0.0
 11
117.6643933556
 21
183.7677014076
 31
0.0
  0
LINE
  5
A1
330
1F
100
AcDbEntity
  8
0
  6
Continuous
 62
     7
370
    25
100
AcDbLine
 10
162.0002917405
 20
183.7677014076
 30
0.0
 11
163.7323425481
 21
184.7677014076
 31
0.0
  0
LINE
  5
A2
330
1F
100
AcDbEntity
  8
0
  6
Continuous
 62
     7
370
    25
100
AcDbLine
 10
163.7323425481
 20
184.7677014076
 30
0.0
 11
162.0002917405
 21
185.7677014076
 31
0.0
  0
LINE
  5
A3
330
1F
100
AcDbEntity
  8
0
  6
Continuous
 62
     7
370
    25
100
AcDbLine
 10
117.6643933556
 20
185.7677014076
 30
0.0
 11
115.9323425481
 21
184.7677014076
 31
0.0
  0
LINE
  5
A4
330
1F
100
AcDbEntity
  8
0
  6
Continuous
 62
     7
370
    25
100
AcDbLine
 10
115.9323425481
 20
186.7677014076
 30
0.0
 11
117.6643933556
 21
185.7677014076
 31
0.0
  0
LINE
  5
A5
330
1F
100
AcDbEntity
  8
0
  6
Continuous
 62
     7
370
    25
100
AcDbLine
 10
162.0002917405
 20
185.7677014076
 30
0.0
 11
163.7323425481
 21
186.7677014076
 31
0.0
  0
LINE
  5
A6
330
1F
100
AcDbEntity
  8
0
  6
Continuous
 62
     7
370
    25
100
AcDbLine
 10
163.7323425481
 20
186.7677014076
 30
0.0
 11
162.0002917405
 21
187.7677014076
 31
0.0
  0
LINE
  5
A7
330
1F
100
AcDbEntity
  8
0
  6
Continuous
 62
     7
370
    25
100
AcDbLine
 10
117.6643933556
 20
187.7677014076
 30
0.0
 11
115.9323425481
 21
186.7677014076
 31
0.0
  0
LINE
  5
A8
330
1F
100
AcDbEntity
  8
0
  6
Continuous
 62
     7
370
    25
100
AcDbLine
 10
115.9323425481
 20
188.7677014076
 30
0.0
 11
117.6643933556
 21
187.7677014076
 31
0.0
  0
LINE
  5
A9
330
1F
100
AcDbEntity
  8
0
  6
Continuous
 62
     7
370
    25
100
AcDbLine
 10
162.0002917405
 20
187.7677014076
 30
0.0
 11
163.7323425481
 21
188.7677014076
 31
0.0
  0
LINE
  5
AA
330
1F
100
AcDbEntity
  8
0
  6
Continuous
 62
     7
370
    25
100
AcDbLine
 10
163.7323425481
 20
188.7677014076
 30
0.0
 11
162.0002917405
 21
189.7677014076
 31
0.0
  0
LINE
  5
AB
330
1F
100
AcDbEntity
  8
0
  6
Continuous
 62
     7
370
    25
100
AcDbLine
 10
117.6643933556
 20
189.7677014076
 30
0.0
 11
115.9323425481
 21
188.7677014076
 31
0.0
  0
LINE
  5
AC
330
1F
100
AcDbEntity
  8
0
  6
Continuous
 62
     7
370
    25
100
AcDbLine
 10
115.9323425481
 20
190.7677014076
 30
0.0
 11
117.6643933556
 21
189.7677014076
 31
0.0
  0
LINE
  5
AD
330
1F
100
AcDbEntity
  8
0
  6
Continuous
 62
     7
370
    25
100
AcDbLine
 10
162.0002917405
 20
189.7677014076
 30
0.0
 11
163.7323425481
 21
190.7677014076
 31
0.0
  0
LINE
  5
AE
330
1F
100
AcDbEntity
  8
0
  6
Continuous
 62
     7
370
    25
100
AcDbLine
 10
163.7323425481
 20
190.7677014076
 30
0.0
 11
163.7323425481
 21
202.7677014076
 31
0.0
  0
LINE
  5
AF
330
1F
100
AcDbEntity
  8
0
  6
Continuous
 62
     7
370
    25
100
AcDbLine
 10
115.9323425481
 20
202.7677014076
 30
0.0
 11
115.9323425481
 21
190.7677014076
 31
0.0
  0
LINE
  5
B0
330
1F
100
AcDbEntity
  8
0
  6
Continuous
 62
     7
370
    25
100
AcDbLine
 10
139.8323425481
 20
212.7677014076
 30
0.0
 11
139.8323425481
 21
202.7677014076
 31
0.0
  0
LINE
  5
B1
330
1F
100
AcDbEntity
  8
0
  6
Continuous
 62
     7
370
    25
100
AcDbLine
 10
139.8323425481
 20
212.7677014076
 30
0.0
 11
169.8323425481
 21
212.7677014076
 31
0.0
  0
LINE
  5
B2
330
1F
100
AcDbEntity
  8
0
  6
Continuous
 62
     7
370
    25
100
AcDbLine
 10
169.8323425481
 20
212.7677014076
 30
0.0
 11
169.8323425481
 21
202.7677014076
 31
0.0
  0
LINE
  5
B3
330
1F
100
AcDbEntity
  8
0
  6
Continuous
 62
     7
370
    25
100
AcDbLine
 10
139.8323425481
 20
202.7677014076
 30
0.0
 11
169.8323425481
 21
202.7677014076
 31
0.0
  0
LINE
  5
B4
330
1F
100
AcDbEntity
  8
0
  6
Continuous
 62
     7
370
    25
100
AcDbLine
 10
109.8323425481
 20
212.7677014076
 30
0.0
 11
109.8323425481
 21
202.7677014076
 31
0.0
  0
LINE
  5
B5
330
1F
100
AcDbEntity
  8
0
  6
Continuous
 62
     7
370
    25
100
AcDbLine
 10
109.8323425481
 20
212.7677014076
 30
0.0
 11
139.8323425481
 21
212.7677014076
 31
0.0
  0
LINE
  5
B6
330
1F
100
AcDbEntity
  8
0
  6
Continuous
 62
     7
370
    25
100
AcDbLine
 10
109.8323425481
 20
202.7677014076
 30
0.0
 11
139.8323425481
 21
202.7677014076
 31
0.0
  0
LINE
  5
B7
330
1F
100
AcDbEntity
  8
0
  6
Continuous
 62
     7
370
    25
100
AcDbLine
 10
166.8323425478
 20
238.7677014076
 30
0.0
 11
112.8323425481
 21
238.7677014076
 31
0.0
  0
LINE
  5
B8
330
1F
100
AcDbEntity
  8
0
  6
Continuous
 62
     7
370
    25
100
AcDbLine
 10
164.8323425481
 20
295.7677014076
 30
0.0
 11
114.8323425481
 21
295.7677014076
 31
0.0
  0
LINE
  5
B9
330
1F
100
AcDbEntity
  8
0
  6
Continuous
 62
     7
370
    25
100
AcDbLine
 10
163.7323425481
 20
184.7677014076
 30
0.0
 11
115.9323425481
 21
184.7677014076
 31
0.0
  0
LINE
  5
BA
330
1F
100
AcDbEntity
  8
0
  6
Continuous
 62
     7
370
    25
100
AcDbLine
 10
162.0002917405
 20
183.7677014076
 30
0.0
 11
117.6643933556
 21
183.7677014076
 31
0.0
  0
LINE
  5
BB
330
1F
100
AcDbEntity
  8
0
  6
Continuous
 62
     7
370
    25
100
AcDbLine
 10
162.0002917405
 20
185.7677014076
 30
0.0
 11
117.6643933556
 21
185.7677014076
 31
0.0
  0
LINE
  5
BC
330
1F
100
AcDbEntity
  8
0
  6
Continuous
 62
     7
370
    25
100
AcDbLine
 10
163.7323425481
 20
186.7677014076
 30
0.0
 11
115.9323425481
 21
186.7677014076
 31
0.0
  0
LINE
  5
BD
330
1F
100
AcDbEntity
  8
0
  6
Continuous
 62
     7
370
    25
100
AcDbLine
 10
162.0002917405
 20
187.7677014076
 30
0.0
 11
117.6643933556
 21
187.7677014076
 31
0.0
  0
LINE
  5
BE
330
1F
100
AcDbEntity
  8
0
  6
Continuous
 62
     7
370
    25
100
AcDbLine
 10
163.7323425481
 20
188.7677014076
 30
0.0
 11
115.9323425481
 21
188.7677014076
 31
0.0
  0
LINE
  5
BF
330
1F
100
AcDbEntity
  8
0
  6
Continuous
 62
     7
370
    25
100
AcDbLine
 10
162.0002917405
 20
189.7677014076
 30
0.0
 11
117.6643933556
 21
189.7677014076
 31
0.0
  0
LINE
  5
C0
330
1F
100
AcDbEntity
  8
0
  6
Continuous
 62
     7
370
    25
100
AcDbLine
 10
163.7323425481
 20
190.7677014076
 30
0.0
 11
115.9323425481
 21
190.7677014076
 31
0.0
  0
LINE
  5
C1
330
1F
100
AcDbEntity
  8
0
  6
Continuous
 62
     1
370
    25
100
AcDbLine
 10
167.3323425481
 20
238.2677014076
 30
0.0
 11
112.3323425481
 21
238.2677014076
 31
0.0
  0
LINE
  5
C2
330
1F
100
AcDbEntity
  8
0
  6
Continuous
 62
     7
370
    25
100
AcDbLine
 10
228.3353476082
 20
81.2440552885
 30
0.0
 11
253.8353476082
 21
81.2440552885
 31
0.0
  0
LINE
  5
C3
330
1F
100
AcDbEntity
  8
0
  6
Continuous
 62
     7
370
    25
100
AcDbLine
 10
253.8353476082
 20
136.2440552885
 30
0.0
 11
228.3353476082
 21
136.2440552885
 31
0.0
  0
ARC
  5
C4
330
1F
100
AcDbEntity
  8
0
  6
Continuous
 62
     7
370
    25
100
AcDbCircle
 10
253.8353476082
 20
81.7440552885
 30
0.0
 40
0.5000000000000568
100
AcDbArc
 50
270.0
 51
0.0
  0
ARC
  5
C5
330
1F
100
AcDbEntity
  8
0
  6
Continuous
 62
     7
370
    25
100
AcDbCircle
 10
253.8353476082
 20
135.7440552885
 30
0.0
 40
0.5000000000000568
100
AcDbArc
 50
0.0
 51
90.0
  0
LINE
  5
C6
330
1F
100
AcDbEntity
  8
0
  6
Continuous
 62
     7
370
    25
100
AcDbLine
 10
254.3353476082
 20
83.7440552885
 30
0.0
 11
311.3353476082
 21
83.7440552885
 31
0.0
  0
LINE
  5
C7
330
1F
100
AcDbEntity
  8
0
  6
Continuous
 62
     7
370
    25
100
AcDbLine
 10
311.3353476082
 20
133.7440552885
 30
0.0
 11
254.3353476082
 21
133.7440552885
 31
0.0
  0
LINE
  5
C8
330
1F
100
AcDbEntity
  8
0
  6
Continuous
 62
     7
370
    25
100
AcDbLine
 10
200.3353476082
 20
132.6440552885
 30
0.0
 11
199.3353476082
 21
130.9120044809
 31
0.0
  0
LINE
  5
C9
330
1F
100
AcDbEntity
  8
0
  6
Continuous
 62
     7
370
    25
100
AcDbLine
 10
199.3353476082
 20
86.576106096
 30
0.0
 11
200.3353476082
 21
84.8440552885
 31
0.0
  0
LINE
  5
CA
330
1F
100
AcDbEntity
  8
0
  6
Continuous
 62
     7
370
    25
100
AcDbLine
 10
200.3353476082
 20
84.8440552885
 30
0.0
 11
201.3353476082
 21
86.576106096
 31
0.0
  0
LINE
  5
CB
330
1F
100
AcDbEntity
  8
0
  6
Continuous
 62
     7
370
    25
100
AcDbLine
 10
201.3353476082
 20
130.9120044809
 30
0.0
 11
200.3353476082
 21
132.6440552885
 31
0.0
  0
LINE
  5
CC
330
1F
100
AcDbEntity
  8
0
  6
Continuous
 62
     7
370
    25
100
AcDbLine
 10
202.3353476082
 20
132.6440552885
 30
0.0
 11
201.3353476082
 21
130.9120044809
 31
0.0
  0
LINE
  5
CD
330
1F
100
AcDbEntity
  8
0
  6
Continuous
 62
     7
370
    25
100
AcDbLine
 10
201.3353476082
 20
86.576106096
 30
0.0
 11
202.3353476082
 21
84.8440552885
 31
0.0
  0
LINE
  5
CE
330
1F
100
AcDbEntity
  8
0
  6
Continuous
 62
     7
370
    25
100
AcDbLine
 10
202.3353476082
 20
84.8440552885
 30
0.0
 11
203.3353476082
 21
86.576106096
 31
0.0
  0
LINE
  5
CF
330
1F
100
AcDbEntity
  8
0
  6
Continuous
 62
     7
370
    25
100
AcDbLine
 10
203.3353476082
 20
130.9120044809
 30
0.0
 11
202.3353476082
 21
132.6440552885
 31
0.0
  0
LINE
  5
D0
330
1F
100
AcDbEntity
  8
0
  6
Continuous
 62
     7
370
    25
100
AcDbLine
 10
204.3353476082
 20
132.6440552885
 30
0.0
 11
203.3353476082
 21
130.9120044809
 31
0.0
  0
LINE
  5
D1
330
1F
100
AcDbEntity
  8
0
  6
Continuous
 62
     7
370
    25
100
AcDbLine
 10
203.3353476082
 20
86.576106096
 30
0.0
 11
204.3353476082
 21
84.8440552885
 31
0.0
  0
LINE
  5
D2
330
1F
100
AcDbEntity
  8
0
  6
Continuous
 62
     7
370
    25
100
AcDbLine
 10
204.3353476082
 20
84.8440552885
 30
0.0
 11
205.3353476082
 21
86.576106096
 31
0.0
  0
LINE
  5
D3
330
1F
100
AcDbEntity
  8
0
  6
Continuous
 62
     7
370
    25
100
AcDbLine
 10
205.3353476082
 20
130.9120044809
 30
0.0
 11
204.3353476082
 21
132.6440552885
 31
0.0
  0
LINE
  5
D4
330
1F
100
AcDbEntity
  8
0
  6
Continuous
 62
     7
370
    25
100
AcDbLine
 10
206.3353476082
 20
132.6440552885
 30
0.0
 11
205.3353476082
 21
130.9120044809
 31
0.0
  0
LINE
  5
D5
330
1F
100
AcDbEntity
  8
0
  6
Continuous
 62
     7
370
    25
100
AcDbLine
 10
205.3353476082
 20
86.576106096
 30
0.0
 11
206.3353476082
 21
84.8440552885
 31
0.0
  0
LINE
  5
D6
330
1F
100
AcDbEntity
  8
0
  6
Continuous
 62
     7
370
    25
100
AcDbLine
 10
206.3353476082
 20
84.8440552885
 30
0.0
 11
218.3353476082
 21
84.8440552885
 31
0.0
  0
LINE
  5
D7
330
1F
100
AcDbEntity
  8
0
  6
Continuous
 62
     7
370
    25
100
AcDbLine
 10
218.3353476082
 20
132.6440552885
 30
0.0
 11
206.3353476082
 21
132.6440552885
 31
0.0
  0
LINE
  5
D8
330
1F
100
AcDbEntity
  8
0
  6
Continuous
 62
     7
370
    25
100
AcDbLine
 10
228.3353476082
 20
126.0645633642
 30
0.0
 11
218.3353476082
 21
126.0645633642
 31
0.0
  0
LINE
  5
D9
330
1F
100
AcDbEntity
  8
0
  6
Continuous
 62
     7
370
    25
100
AcDbLine
 10
228.3353476082
 20
126.0645633642
 30
0.0
 11
228.3353476082
 21
91.4235472128
 31
0.0
  0
LINE
  5
DA
330
1F
100
AcDbEntity
  8
0
  6
Continuous
 62
     7
370
    25
100
AcDbLine
 10
228.3353476082
 20
91.4235472128
 30
0.0
 11
218.3353476082
 21
91.4235472128
 31
0.0
  0
LINE
  5
DB
330
1F
100
AcDbEntity
  8
0
  6
Continuous
 62
     7
370
    25
100
AcDbLine
 10
218.3353476082
 20
126.0645633642
 30
0.0
 11
218.3353476082
 21
91.4235472128
 31
0.0
  0
LINE
  5
DC
330
1F
100
AcDbEntity
  8
0
  6
Continuous
 62
     7
370
    25
100
AcDbLine
 10
228.3353476082
 20
91.4235472128
 30
0.0
 11
228.3353476082
 21
74.1030391371
 31
0.0
  0
LINE
  5
DD
330
1F
100
AcDbEntity
  8
0
  6
Continuous
 62
     7
370
    25
100
AcDbLine
 10
228.3353476082
 20
74.1030391371
 30
0.0
 11
218.3353476082
 21
74.1030391371
 31
0.0
  0
LINE
  5
DE
330
1F
100
AcDbEntity
  8
0
  6
Continuous
 62
     7
370
    25
100
AcDbLine
 10
218.3353476082
 20
91.4235472128
 30
0.0
 11
218.3353476082
 21
74.1030391371
 31
0.0
  0
LINE
  5
DF
330
1F
100
AcDbEntity
  8
0
  6
Continuous
 62
     7
370
    25
100
AcDbLine
 10
228.3353476082
 20
143.3850714398
 30
0.0
 11
218.3353476082
 21
143.3850714398
 31
0.0
  0
LINE
  5
E0
330
1F
100
AcDbEntity
  8
0
  6
Continuous
 62
     7
370
    25
100
AcDbLine
 10
228.3353476082
 20
143.3850714398
 30
0.0
 11
228.3353476082
 21
126.0645633642
 31
0.0
  0
LINE
  5
E1
330
1F
100
AcDbEntity
  8
0
  6
Continuous
 62
     7
370
    25
100
AcDbLine
 10
218.3353476082
 20
143.3850714398
 30
0.0
 11
218.3353476082
 21
126.0645633642
 31
0.0
  0
LINE
  5
E2
330
1F
100
AcDbEntity
  8
0
  6
Continuous
 62
     7
370
    25
100
AcDbLine
 10
254.3353476082
 20
108.7440552885
 30
0.0
 11
254.3353476082
 21
135.7440552885
 31
0.0
  0
LINE
  5
E3
330
1F
100
AcDbEntity
  8
0
  6
Continuous
 62
     7
370
    25
100
AcDbLine
 10
254.3353476082
 20
81.7440552885
 30
0.0
 11
254.3353476082
 21
108.7440552885
 31
0.0
  0
LINE
  5
E4
330
1F
100
AcDbEntity
  8
0
  6
Continuous
 62
     7
370
    25
100
AcDbLine
 10
311.3353476082
 20
108.7440552885
 30
0.0
 11
311.3353476082
 21
133.7440552885
 31
0.0
  0
LINE
  5
E5
330
1F
100
AcDbEntity
  8
0
  6
Continuous
 62
     7
370
    25
100
AcDbLine
 10
311.3353476082
 20
83.7440552885
 30
0.0
 11
311.3353476082
 21
108.7440552885
 31
0.0
  0
LINE
  5
E6
330
1F
100
AcDbEntity
  8
0
  6
Continuous
 62
     7
370
    25
100
AcDbLine
 10
200.3353476082
 20
108.7440552885
 30
0.0
 11
200.3353476082
 21
132.6440552885
 31
0.0
  0
LINE
  5
E7
330
1F
100
AcDbEntity
  8
0
  6
Continuous
 62
     7
370
    25
100
AcDbLine
 10
200.3353476082
 20
84.8440552885
 30
0.0
 11
200.3353476082
 21
108.7440552885
 31
0.0
  0
LINE
  5
E8
330
1F
100
AcDbEntity
  8
0
  6
Continuous
 62
     7
370
    25
100
AcDbLine
 10
199.3353476082
 20
108.7440552885
 30
0.0
 11
199.3353476082
 21
130.9120044809
 31
0.0
  0
LINE
  5
E9
330
1F
100
AcDbEntity
  8
0
  6
Continuous
 62
     7
370
    25
100
AcDbLine
 10
199.3353476082
 20
86.576106096
 30
0.0
 11
199.3353476082
 21
108.7440552885
 31
0.0
  0
LINE
  5
EA
330
1F
100
AcDbEntity
  8
0
  6
Continuous
 62
     7
370
    25
100
AcDbLine
 10
201.3353476082
 20
108.7440552885
 30
0.0
 11
201.3353476082
 21
130.9120044809
 31
0.0
  0
LINE
  5
EB
330
1F
100
AcDbEntity
  8
0
  6
Continuous
 62
     7
370
    25
100
AcDbLine
 10
201.3353476082
 20
86.576106096
 30
0.0
 11
201.3353476082
 21
108.7440552885
 31
0.0
  0
LINE
  5
EC
330
1F
100
AcDbEntity
  8
0
  6
Continuous
 62
     7
370
    25
100
AcDbLine
 10
202.3353476082
 20
108.7440552885
 30
0.0
 11
202.3353476082
 21
132.6440552885
 31
0.0
  0
LINE
  5
ED
330
1F
100
AcDbEntity
  8
0
  6
Continuous
 62
     7
370
    25
100
AcDbLine
 10
202.3353476082
 20
84.8440552885
 30
0.0
 11
202.3353476082
 21
108.7440552885
 31
0.0
  0
LINE
  5
EE
330
1F
100
AcDbEntity
  8
0
  6
Continuous
 62
     7
370
    25
100
AcDbLine
 10
203.3353476082
 20
108.7440552885
 30
0.0
 11
203.3353476082
 21
130.9120044809
 31
0.0
  0
LINE
  5
EF
330
1F
100
AcDbEntity
  8
0
  6
Continuous
 62
     7
370
    25
100
AcDbLine
 10
203.3353476082
 20
86.576106096
 30
0.0
 11
203.3353476082
 21
108.7440552885
 31
0.0
  0
LINE
  5
F0
330
1F
100
AcDbEntity
  8
0
  6
Continuous
 62
     7
370
    25
100
AcDbLine
 10
204.3353476082
 20
108.7440552885
 30
0.0
 11
204.3353476082
 21
132.6440552885
 31
0.0
  0
LINE
  5
F1
330
1F
100
AcDbEntity
  8
0
  6
Continuous
 62
     7
370
    25
100
AcDbLine
 10
204.3353476082
 20
84.8440552885
 30
0.0
 11
204.3353476082
 21
108.7440552885
 31
0.0
  0
LINE
  5
F2
330
1F
100
AcDbEntity
  8
0
  6
Continuous
 62
     7
370
    25
100
AcDbLine
 10
205.3353476082
 20
108.7440552885
 30
0.0
 11
205.3353476082
 21
130.9120044809
 31
0.0
  0
LINE
  5
F3
330
1F
100
AcDbEntity
  8
0
  6
Continuous
 62
     7
370
    25
100
AcDbLine
 10
205.3353476082
 20
86.576106096
 30
0.0
 11
205.3353476082
 21
108.7440552885
 31
0.0
  0
LINE
  5
F4
330
1F
100
AcDbEntity
  8
0
  6
Continuous
 62
     7
370
    25
100
AcDbLine
 10
206.3353476082
 20
108.7440552885
 30
0.0
 11
206.3353476082
 21
132.6440552885
 31
0.0
  0
LINE
  5
F5
330
1F
100
AcDbEntity
  8
0
  6
Continuous
 62
     7
370
    25
100
AcDbLine
 10
206.3353476082
 20
84.8440552885
 30
0.0
 11
206.3353476082
 21
108.7440552885
 31
0.0
  0
LINE
  5
F6
330
1F
100
AcDbEntity
  8
0
  6
Continuous
 62
     1
370
    25
100
AcDbLine
 10
253.8353476082
 20
108.7440552885
 30
0.0
 11
253.8353476082
 21
136.2440552885
 31
0.0
  0
LINE
  5
F7
330
1F
100
AcDbEntity
  8
0
  6
Continuous
 62
     1
370
    25
100
AcDbLine
 10
253.8353476082
 20
81.2440552885
 30
0.0
 11
253.8353476082
 21
108.7440552885
 31
0.0
  0
LINE
  5
F8
330
1F
100
AcDbEntity
  8
0
  6
Continuous
 62
     7
370
    25
100
AcDbLine
 10
36.5716664957
 20
136.2440552885
 30
0.0
 11
11.0716664957
 21
136.2440552885
 31
0.0
  0
LINE
  5
F9
330
1F
100
AcDbEntity
  8
0
  6
Continuous
 62
     7
370
    25
100
AcDbLine
 10
11.0716664957
 20
81.2440552885
 30
0.0
 11
36.5716664957
 21
81.2440552885
 31
0.0
  0
ARC
  5
FA
330
1F
100
AcDbEntity
  8
0
  6
Continuous
 62
     7
370
    25
100
AcDbCircle
 10
11.0716664957
 20
135.7440552885
 30
0.0
 40
0.5000000000000018
100
AcDbArc
 50
90.0
 51
180.0
  0
ARC
  5
FB
330
1F
100
AcDbEntity
  8
0
  6
Continuous
 62
     7
370
    25
100
AcDbCircle
 10
11.0716664957
 20
81.7440552885
 30
0.0
 40
0.5000000000000018
100
AcDbArc
 50
180.0
 51
270.0
  0
LINE
  5
FC
330
1F
100
AcDbEntity
  8
0
  6
Continuous
 62
     7
370
    25
100
AcDbLine
 10
10.5716664957
 20
133.7440552885
 30
0.0
 11
-46.4283335043
 21
133.7440552885
 31
0.0
  0
LINE
  5
FD
330
1F
100
AcDbEntity
  8
0
  6
Continuous
 62
     7
370
    25
100
AcDbLine
 10
-46.4283335043
 20
83.7440552885
 30
0.0
 11
10.5716664957
 21
83.7440552885
 31
0.0
  0
LINE
  5
FE
330
1F
100
AcDbEntity
  8
0
  6
Continuous
 62
     7
370
    25
100
AcDbLine
 10
64.5716664957
 20
84.8440552885
 30
0.0
 11
65.5716664957
 21
86.576106096
 31
0.0
  0
LINE
  5
FF
330
1F
100
AcDbEntity
  8
0
  6
Continuous
 62
     7
370
    25
100
AcDbLine
 10
65.5716664957
 20
130.9120044809
 30
0.0
 11
64.5716664957
 21
132.6440552885
 31
0.0
  0
LINE
  5
100
330
1F
100
AcDbEntity
  8
0
  6
Continuous
 62
     7
370
    25
100
AcDbLine
 10
64.5716664957
 20
132.6440552885
 30
0.0
 11
63.5716664957
 21
130.9120044809
 31
0.0
  0
LINE
  5
101
330
1F
100
AcDbEntity
  8
0
  6
Continuous
 62
     7
370
    25
100
AcDbLine
 10
63.5716664957
 20
86.576106096
 30
0.0
 11
64.5716664957
 21
84.8440552885
 31
0.0
  0
LINE
  5
102
330
1F
100
AcDbEntity
  8
0
  6
Continuous
 62
     7
370
    25
100
AcDbLine
 10
62.5716664957
 20
84.8440552885
 30
0.0
 11
63.5716664957
 21
86.576106096
 31
0.0
  0
LINE
  5
103
330
1F
100
AcDbEntity
  8
0
  6
Continuous
 62
     7
370
    25
100
AcDbLine
 10
63.5716664957
 20
130.9120044809
 30
0.0
 11
62.5716664957
 21
132.6440552885
 31
0.0
  0
LINE
  5
104
330
1F
100
AcDbEntity
  8
0
  6
Continuous
 62
     7
370
    25
100
AcDbLine
 10
62.5716664957
 20
132.6440552885
 30
0.0
 11
61.5716664957
 21
130.9120044809
 31
0.0
  0
LINE
  5
105
330
1F
100
AcDbEntity
  8
0
  6
Continuous
 62
     7
370
    25
100
AcDbLine
 10
61.5716664957
 20
86.576106096
 30
0.0
 11
62.5716664957
 21
84.8440552885
 31
0.0
  0
LINE
  5
106
330
1F
100
AcDbEntity
  8
0
  6
Continuous
 62
     7
370
    25
100
AcDbLine
 10
60.5716664957
 20
84.8440552885
 30
0.0
 11
61.5716664957
 21
86.576106096
 31
0.0
  0
LINE
  5
107
330
1F
100
AcDbEntity
  8
0
  6
Continuous
 62
     7
370
    25
100
AcDbLine
 10
61.5716664957
 20
130.9120044809
 30
0.0
 11
60.5716664957
 21
132.6440552885
 31
0.0
  0
LINE
  5
108
330
1F
100
AcDbEntity
  8
0
  6
Continuous
 62
     7
370
    25
100
AcDbLine
 10
60.5716664957
 20
132.6440552885
 30
0.0
 11
59.5716664957
 21
130.9120044809
 31
0.0
  0
LINE
  5
109
330
1F
100
AcDbEntity
  8
0
  6
Continuous
 62
     7
370
    25
100
AcDbLine
 10
59.5716664957
 20
86.576106096
 30
0.0
 11
60.5716664957
 21
84.8440552885
 31
0.0
  0
LINE
  5
10A
330
1F
100
AcDbEntity
  8
0
  6
Continuous
 62
     7
370
    25
100
AcDbLine
 10
58.5716664957
 20
84.8440552885
 30
0.0
 11
59.5716664957
 21
86.576106096
 31
0.0
  0
LINE
  5
10B
330
1F
100
AcDbEntity
  8
0
  6
Continuous
 62
     7
370
    25
100
AcDbLine
 10
59.5716664957
 20
130.9120044809
 30
0.0
 11
58.5716664957
 21
132.6440552885
 31
0.0
  0
LINE
  5
10C
330
1F
100
AcDbEntity
  8
0
  6
Continuous
 62
     7
370
    25
100
AcDbLine
 10
58.5716664957
 20
132.6440552885
 30
0.0
 11
46.5716664957
 21
132.6440552885
 31
0.0
  0
LINE
  5
10D
330
1F
100
AcDbEntity
  8
0
  6
Continuous
 62
     7
370
    25
100
AcDbLine
 10
46.5716664957
 20
84.8440552885
 30
0.0
 11
58.5716664957
 21
84.8440552885
 31
0.0
  0
LINE
  5
10E
330
1F
100
AcDbEntity
  8
0
  6
Continuous
 62
     7
370
    25
100
AcDbLine
 10
36.5716664957
 20
91.4235472128
 30
0.0
 11
46.5716664957
 21
91.4235472128
 31
0.0
  0
LINE
  5
10F
330
1F
100
AcDbEntity
  8
0
  6
Continuous
 62
     7
370
    25
100
AcDbLine
 10
36.5716664957
 20
91.4235472128
 30
0.0
 11
36.5716664957
 21
126.0645633642
 31
0.0
  0
LINE
  5
110
330
1F
100
AcDbEntity
  8
0
  6
Continuous
 62
     7
370
    25
100
AcDbLine
 10
36.5716664957
 20
126.0645633642
 30
0.0
 11
46.5716664957
 21
126.0645633642
 31
0.0
  0
LINE
  5
111
330
1F
100
AcDbEntity
  8
0
  6
Continuous
 62
     7
370
    25
100
AcDbLine
 10
46.5716664957
 20
91.4235472128
 30
0.0
 11
46.5716664957
 21
126.0645633642
 31
0.0
  0
LINE
  5
112
330
1F
100
AcDbEntity
  8
0
  6
Continuous
 62
     7
370
    25
100
AcDbLine
 10
36.5716664957
 20
126.0645633642
 30
0.0
 11
36.5716664957
 21
143.3850714398
 31
0.0
  0
LINE
  5
113
330
1F
100
AcDbEntity
  8
0
  6
Continuous
 62
     7
370
    25
100
AcDbLine
 10
36.5716664957
 20
143.3850714398
 30
0.0
 11
46.5716664957
 21
143.3850714398
 31
0.0
  0
LINE
  5
114
330
1F
100
AcDbEntity
  8
0
  6
Continuous
 62
     7
370
    25
100
AcDbLine
 10
46.5716664957
 20
126.0645633642
 30
0.0
 11
46.5716664957
 21
143.3850714398
 31
0.0
  0
LINE
  5
115
330
1F
100
AcDbEntity
  8
0
  6
Continuous
 62
     7
370
    25
100
AcDbLine
 10
36.5716664957
 20
74.1030391371
 30
0.0
 11
46.5716664957
 21
74.1030391371
 31
0.0
  0
LINE
  5
116
330
1F
100
AcDbEntity
  8
0
  6
Continuous
 62
     7
370
    25
100
AcDbLine
 10
36.5716664957
 20
74.1030391371
 30
0.0
 11
36.5716664957
 21
91.4235472128
 31
0.0
  0
LINE
  5
117
330
1F
100
AcDbEntity
  8
0
  6
Continuous
 62
     7
370
    25
100
AcDbLine
 10
46.5716664957
 20
74.1030391371
 30
0.0
 11
46.5716664957
 21
91.4235472128
 31
0.0
  0
LINE
  5
118
330
1F
100
AcDbEntity
  8
0
  6
Continuous
 62
     7
370
    25
100
AcDbLine
 10
10.5716664957
 20
135.7440552885
 30
0.0
 11
10.5716664957
 21
81.7440552885
 31
0.0
  0
LINE
  5
119
330
1F
100
AcDbEntity
  8
0
  6
Continuous
 62
     7
370
    25
100
AcDbLine
 10
-46.4283335043
 20
133.7440552885
 30
0.0
 11
-46.4283335043
 21
83.7440552885
 31
0.0
  0
LINE
  5
11A
330
1F
100
AcDbEntity
  8
0
  6
Continuous
 62
     7
370
    25
100
AcDbLine
 10
64.5716664957
 20
132.6440552885
 30
0.0
 11
64.5716664957
 21
84.8440552885
 31
0.0
  0
LINE
  5
11B
330
1F
100
AcDbEntity
  8
0
  6
Continuous
 62
     7
370
    25
100
AcDbLine
 10
65.5716664957
 20
130.9120044809
 30
0.0
 11
65.5716664957
 21
86.576106096
 31
0.0
  0
LINE
  5
11C
330
1F
100
AcDbEntity
  8
0
  6
Continuous
 62
     7
370
    25
100
AcDbLine
 10
63.5716664957
 20
130.9120044809
 30
0.0
 11
63.5716664957
 21
86.576106096
 31
0.0
  0
LINE
  5
11D
330
1F
100
AcDbEntity
  8
0
  6
Continuous
 62
     7
370
    25
100
AcDbLine
 10
62.5716664957
 20
132.6440552885
 30
0.0
 11
62.5716664957
 21
84.8440552885
 31
0.0
  0
LINE
  5
11E
330
1F
100
AcDbEntity
  8
0
  6
Continuous
 62
     7
370
    25
100
AcDbLine
 10
61.5716664957
 20
130.9120044809
 30
0.0
 11
61.5716664957
 21
86.576106096
 31
0.0
  0
LINE
  5
11F
330
1F
100
AcDbEntity
  8
0
  6
Continuous
 62
     7
370
    25
100
AcDbLine
 10
60.5716664957
 20
132.6440552885
 30
0.0
 11
60.5716664957
 21
84.8440552885
 31
0.0
  0
LINE
  5
120
330
1F
100
AcDbEntity
  8
0
  6
Continuous
 62
     7
370
    25
100
AcDbLine
 10
59.5716664957
 20
130.9120044809
 30
0.0
 11
59.5716664957
 21
86.576106096
 31
0.0
  0
LINE
  5
121
330
1F
100
AcDbEntity
  8
0
  6
Continuous
 62
     7
370
    25
100
AcDbLine
 10
58.5716664957
 20
132.6440552885
 30
0.0
 11
58.5716664957
 21
84.8440552885
 31
0.0
  0
LINE
  5
122
330
1F
100
AcDbEntity
  8
0
  6
Continuous
 62
     1
370
    25
100
AcDbLine
 10
11.0716664957
 20
136.2440552885
 30
0.0
 11
11.0716664957
 21
81.2440552885
 31
0.0
  0
LINE
  5
123
330
1F
100
AcDbEntity
  8
0
  6
Continuous
 62
     7
370
    25
100
AcDbLine
 10
271.0984353715
 20
20.9246021218
 30
0.0
 11
230.7933488439
 21
44.1922333088
 31
0.0
  0
LINE
  5
124
330
1F
100
AcDbEntity
  8
0
  6
Continuous
 62
     7
370
    25
100
AcDbLine
 10
205.795380528
 20
0.8897901898
 30
0.0
 11
246.1004670556
 21
-22.3778409972
 31
0.0
  0
SPLINE
  5
125
330
1F
100
AcDbEntity
  8
0
  6
Continuous
 62
     7
370
    25
100
AcDbSpline
210
0.0
220
0.0
230
1.0
 70
     8
 71
     3
 72
    13
 73
     9
 74
     0
 42
0.00000001
 43
0.00000001
 40
0.0
 40
0.0
 40
0.0
 40
0.0
 40
0.0468871204801578
 40
0.2411423782042771
 40
0.4358187368465252
 40
0.6310059076974845
 40
0.8267305278874106
 40
1.0
 40
1.0
 40
1.0
 40
1.0
 10
270.6518771685471
 20
23.76051161769874
 30
0.0
 10
270.5807708929538
 20
23.78445403501755
 30
0.0
 10
270.2150684094948
 20
23.9075908664777
 30
0.0
 10
269.5180145231047
 20
24.05014069698522
 30
0.0
 10
268.5629069196781
 20
24.18478080818942
 30
0.0
 10
267.5728756779535
 20
24.22916890168506
 30
0.0
 10
266.5968990185143
 20
24.20212055235574
 30
0.0
 10
265.941037119573
 20
24.1188134786406
 30
0.0
 10
265.6330624192216
 20
24.07969476918974
 30
0.0
  0
SPLINE
  5
126
330
1F
100
AcDbEntity
  8
0
  6
Continuous
 62
     7
370
    25
100
AcDbSpline
210
0.0
220
0.0
230
1.0
 70
     8
 71
     3
 72
    13
 73
     9
 74
     0
 42
0.00000001
 43
0.00000001
 40
0.0
 40
0.0
 40
0.0
 40
0.0
 40
0.0427529102779638
 40
0.2454213189816326
 40
0.4476845350544328
 40
0.6494522472595121
 40
0.8506599679614326
 40
1.0
 40
1.0
 40
1.0
 40
1.0
 10
240.6386366757527
 20
-19.22479343337889
 30
0.0
 10
240.6651143173062
 20
-19.29570791833991
 30
0.0
 10
240.8171081271158
 20
-19.70278959584166
 30
0.0
 10
241.1545029905234
 20
-20.38814850279139
 30
0.0
 10
241.651356697123
 20
-21.2740857929908
 30
0.0
 10
242.212290813023
 20
-22.08557160315783
 30
0.0
 10
242.7683671768073
 20
-22.77370266671613
 30
0.0
 10
243.1615183268927
 20
-23.15739227398864
 30
0.0
 10
243.3290082191849
 20
-23.32085136849141
 30
0.0
  0
LINE
  5
127
330
1F
100
AcDbEntity
  8
0
  6
Continuous
 62
     7
370
    25
100
AcDbLine
 10
290.7331100982
 20
12.4764188241
 30
0.0
 11
272.7018871779
 21
22.8856222498
 31
0.0
  0
LINE
  5
128
330
1F
100
AcDbEntity
  8
0
  6
Continuous
 62
     7
370
    25
100
AcDbLine
 10
245.2041220304
 20
-24.7470651811
 30
0.0
 11
263.2353449507
 21
-35.1562686068
 31
0.0
  0
LWPOLYLINE
  5
129
330
1F
100
AcDbEntity
  8
0
  6
Continuous
 62
     7
370
    25
100
AcDbPolyline
 90
      100
 70
   128
 43
0.0
 10
200.6166951563
 20
12.3359103515
 10
200.6522860243
 20
13.6511619935
 10
200.7589153164
 20
15.0022099228
 10
200.9361536741
 20
16.3836139463
 10
201.183287421
 20
17.7898116376
 10
201.4993214369
 20
19.2151407348
 10
201.8829831642
 20
20.6538619407
 10
202.3327277326
 20
22.1001820329
 10
202.8467441794
 20
23.5482771907
 10
203.4229627419
 20
24.9923164461
 10
204.0590631913
 20
26.4264851626
 10
204.7524841755
 20
27.8450084491
 10
205.500433533
 20
29.2421744129
 10
206.2998995357
 20
30.6123571598
 10
207.1476630162
 20
31.9500394474
 10
208.0403103302
 20
33.2498349014
 10
208.9742471019
 20
34.5065097041
 10
209.9457126977
 20
35.7150036697
 10
210.9507953685
 20
36.8704506195
 10
211.985448001
 20
37.9681979765
 10
213.0455044143
 20
39.0038254995
 10
214.1266961354
 20
39.9731630819
 10
215.2246695867
 20
40.8723075435
 10
216.3350036169
 20
41.6976383469
 10
217.4532273024
 20
42.4458321762
 10
218.5748379514
 20
43.1138763188
 10
219.6953192335
 20
43.699080797
 10
220.8101593661
 20
44.1990891987
 10
221.9148692815
 20
44.6118881665
 10
223.0050007027
 20
44.9358155048
 10
224.0761640552
 20
45.1695668725
 10
225.1240461424
 20
45.3122010354
 10
226.1444275128
 20
45.3631436559
 10
227.1331994508
 20
45.3221896062
 10
228.0863805208
 20
45.1895037937
 10
229.0001325991
 20
44.9656204974
 10
229.8707763286
 20
44.6514412163
 10
230.6948059342
 20
44.2482310394
 10
231.4689033395
 20
43.7576135519
 10
232.1899515276
 20
43.1815642972
 10
232.8550470918
 20
42.5224028224
 10
233.4615119271
 20
41.782783338
 10
234.0069040135
 20
40.9656840307
 10
234.4890272498
 20
40.074395071
 10
234.9059402957
 20
39.112505365
 10
235.2559643896
 20
38.0838881029
 10
235.5376901079
 20
36.9926851636
 10
235.7499830407
 20
35.843290436
 10
235.8919883593
 20
34.6403321271
 10
235.9631342583
 20
33.3886541255
 10
235.9631342583
 20
32.0932964966
 10
235.8919883593
 20
30.7594751884
 10
235.7499830407
 20
29.3925610287
 10
235.5376901079
 20
27.9980580981
 10
235.2559643896
 20
26.581581568
 10
234.9059402957
 20
25.1488350893
 10
234.4890272498
 20
23.7055878265
 10
234.0069040135
 20
22.2576512268
 10
233.4615119271
 20
20.8108556199
 10
232.8550470918
 20
19.3710267411
 10
232.1899515276
 20
17.9439622731
 10
231.4689033395
 20
16.5354085008
 10
230.6948059342
 20
15.1510371732
 10
229.8707763286
 20
13.796422665
 10
229.0001325991
 20
12.4770195306
 10
228.0863805208
 20
11.1981405409
 10
227.1331994508
 20
9.9649352902
 10
226.1444275128
 20
8.7823694607
 10
225.1240461424
 20
7.6552048277
 10
224.0761640552
 20
6.5879800852
 10
223.0050007027
 20
5.5849925708
 10
221.9148692815
 20
4.6502809611
 10
220.8101593661
 20
3.7876090099
 10
219.6953192335
 20
3.0004503926
 10
218.5748379514
 20
2.2919747191
 10
217.4532273024
 20
1.665034771
 10
216.3350036168
 20
1.1221550142
 10
215.2246695867
 20
0.6655214337
 10
214.1266961354
 20
0.296972732
 10
213.0455044143
 20
0.0179929245
 10
211.985448001
 20
-0.1702946356
 10
210.9507953685
 20
-0.2671317807
 10
209.9457126977
 20
-0.2721285817
 10
208.9742471019
 20
-0.1852649185
 10
208.0403103302
 20
-0.0068905601
 10
207.1476630162
 20
0.2622762427
 10
206.2998995357
 20
0.6211516502
 10
205.500433533
 20
1.0682905979
 10
204.7524841755
 20
1.601892615
 10
204.0590631913
 20
2.2198090745
 10
203.4229627419
 20
2.9195518449
 10
202.8467441794
 20
3.6983033091
 10
202.3327277326
 20
4.5529277098
 10
201.8829831642
 20
5.4799837761
 10
201.4993214369
 20
6.4757385805
 10
201.183287421
 20
7.5361825698
 10
200.9361536741
 20
8.6570457103
 10
200.7589153164
 20
9.8338146818
 10
200.6522860243
 20
11.061751051
 10
200.6166951563
 20
12.3359103515
  0
LWPOLYLINE
  5
12A
330
1F
100
AcDbEntity
  8
0
  6
Continuous
 62
     7
370
    25
100
AcDbPolyline
 90
       51
 70
   128
 43
0.0
 10
271.0984353715
 20
20.9246021218
 10
271.7739898672
 20
20.489982365
 10
272.4950380552
 20
19.9139331103
 10
273.1601336194
 20
19.2547716355
 10
273.7665984547
 20
18.5151521511
 10
274.3119905412
 20
17.6980528438
 10
274.7941137774
 20
16.8067638841
 10
275.2110268233
 20
15.844874178
 10
275.5610509172
 20
14.816256916
 10
275.8427766355
 20
13.7250539766
 10
276.0550695684
 20
12.5756592491
 10
276.1970748869
 20
11.3727009402
 10
276.2682207859
 20
10.1210229385
 10
276.2682207859
 20
8.8256653096
 10
276.1970748869
 20
7.4918440015
 10
276.0550695684
 20
6.1249298417
 10
275.8427766355
 20
4.7304269112
 10
275.5610509172
 20
3.3139503811
 10
275.2110268233
 20
1.8812039024
 10
274.7941137774
 20
0.4379566395
 10
274.3119905412
 20
-1.0099799602
 10
273.7665984547
 20
-2.4567755671
 10
273.1601336194
 20
-3.8966044459
 10
272.4950380552
 20
-5.3236689139
 10
271.7739898672
 20
-6.7322226861
 10
270.9998924618
 20
-8.1165940137
 10
270.1758628562
 20
-9.471208522
 10
269.3052191268
 20
-10.7906116563
 10
268.3914670485
 20
-12.069490646
 10
267.4382859784
 20
-13.3026958968
 10
266.4495140404
 20
-14.4852617263
 10
265.42913267
 20
-15.6124263593
 10
264.3812505829
 20
-16.6796511017
 10
263.3100872303
 20
-17.6826386161
 10
262.2199558091
 20
-18.6173502258
 10
261.1152458938
 20
-19.4800221771
 10
260.0004057612
 20
-20.2671807944
 10
258.879924479
 20
-20.9756564678
 10
257.7583138301
 20
-21.6025964159
 10
256.6400901445
 20
-22.1454761728
 10
255.5297561144
 20
-22.6021097532
 10
254.431782663
 20
-22.9706584549
 10
253.3505909419
 20
-23.2496382625
 10
252.2905345286
 20
-23.4379258225
 10
251.2558818961
 20
-23.5347629676
 10
250.2507992253
 20
-23.5397597687
 10
249.2793336296
 20
-23.4528961054
 10
248.3453968578
 20
-23.2745217471
 10
247.4527495438
 20
-23.0053549443
 10
246.6049860633
 20
-22.6464795368
 10
246.1004670556
 20
-22.3778409972
  0
LWPOLYLINE
  5
12B
330
1F
100
AcDbEntity
  8
0
  6
Continuous
 62
     7
370
    25
100
AcDbPolyline
 90
       91
 70
   128
 43
0.0
 10
203.8693863498
 20
14.2136490087
 10
203.904524872
 20
15.395897803
 10
204.0097692473
 20
16.6129568742
 10
204.1846067358
 20
17.8588968329
 10
204.4281855466
 20
19.1276475848
 10
204.7393189884
 20
20.4130279038
 10
205.1164912503
 20
21.7087755462
 10
205.557864787
 20
23.0085777597
 10
206.0612892708
 20
24.3061020386
 10
206.6243120685
 20
25.5950269751
 10
207.2441901894
 20
26.8690730564
 10
207.9179036497
 20
28.122033258
 10
208.6421701851
 20
29.3478032838
 10
209.413461242
 20
30.5404113055
 10
210.2280191676
 20
31.6940470567
 10
211.0818755179
 20
32.8030901399
 10
211.9708703903
 20
33.8621374087
 10
212.8906726913
 20
34.8660292913
 10
213.8368012366
 20
35.8098749274
 10
214.8046465829
 20
36.6890759958
 10
215.789493485
 20
37.4993491174
 10
216.7865438678
 20
38.2367467229
 10
217.7909402021
 20
38.8976762854
 10
218.7977891698
 20
39.4789178224
 10
219.8021855041
 20
39.9776395836
 10
220.7992358869
 20
40.3914118468
 10
221.784082789
 20
40.7182187549
 10
222.7519281353
 20
40.9564681377
 10
223.6980566806
 20
41.1049992681
 10
224.6178589816
 20
41.1630885174
 10
225.5068538541
 20
41.1304528805
 10
226.3607102043
 20
41.007251355
 10
227.17526813
 20
40.7940841664
 10
227.9465591868
 20
40.4919898438
 10
228.6708257222
 20
40.1024401603
 10
229.3445391825
 20
39.6273329629
 10
229.9644173034
 20
39.068982926
 10
230.5274401011
 20
38.430110275
 10
231.030864585
 20
37.713827533
 10
231.4722381216
 20
36.9236243578
 10
231.8494103835
 20
36.0633505397
 10
232.1605438253
 20
35.1371972462
 10
232.4041226362
 20
34.1496766032
 10
232.5789601246
 20
33.1055997119
 10
232.6842044999
 20
32.01005321
 10
232.7193430222
 20
30.8683744899
 10
232.6842044999
 20
29.6861256956
 10
232.5789601246
 20
28.4690666244
 10
232.4041226362
 20
27.2231266657
 10
232.1605438253
 20
25.9543759138
 10
231.8494103835
 20
24.6689955948
 10
231.4722381216
 20
23.3732479524
 10
231.030864585
 20
22.0734457388
 10
230.5274401011
 20
20.7759214599
 10
229.9644173034
 20
19.4869965235
 10
229.3445391825
 20
18.2129504422
 10
228.6708257222
 20
16.9599902406
 10
227.9465591868
 20
15.7342202147
 10
227.17526813
 20
14.541612193
 10
226.3607102043
 20
13.3879764419
 10
225.5068538541
 20
12.2789333586
 10
224.6178589816
 20
11.2198860898
 10
223.6980566806
 20
10.2159942072
 10
222.7519281353
 20
9.2721485712
 10
221.784082789
 20
8.3929475027
 10
220.7992358869
 20
7.5826743812
 10
219.8021855041
 20
6.8452767756
 10
218.7977891698
 20
6.1843472132
 10
217.7909402021
 20
5.6031056762
 10
216.7865438678
 20
5.1043839149
 10
215.789493485
 20
4.6906116518
 10
214.8046465829
 20
4.3638047436
 10
213.8368012366
 20
4.1255553608
 10
212.8906726913
 20
3.9770242304
 10
211.9708703903
 20
3.9189349812
 10
211.0818755179
 20
3.9515706181
 10
210.2280191676
 20
4.0747721435
 10
209.413461242
 20
4.2879393321
 10
208.6421701851
 20
4.5900336548
 10
207.9179036497
 20
4.9795833382
 10
207.2441901894
 20
5.4546905357
 10
206.6243120685
 20
6.0130405725
 10
206.0612892708
 20
6.6519132236
 10
205.557864787
 20
7.3681959655
 10
205.1164912503
 20
8.1583991407
 10
204.7393189884
 20
9.0186729589
 10
204.4281855466
 20
9.9448262523
 10
204.1846067358
 20
10.9323468954
 10
204.0097692473
 20
11.9764237867
 10
203.904524872
 20
13.0719702886
 10
203.8693863498
 20
14.2136490087
  0
ARC
  5
12C
330
1F
100
AcDbEntity
  8
0
  6
Continuous
 62
     7
370
    25
100
AcDbCircle
 10
268.0522119112
 20
14.8307066884
 30
0.0
 40
9.299332483539537
100
AcDbArc
 50
45.9613959536
 51
73.2956483415
  0
ARC
  5
12D
330
1F
100
AcDbEntity
  8
0
  6
Continuous
 62
     7
370
    25
100
AcDbCircle
 10
249.8550580669
 20
-16.6902169687
 30
0.0
 40
9.301601109676616
100
AcDbArc
 50
225.9505509074
 51
253.6595872
  0
LWPOLYLINE
  5
12E
330
1F
100
AcDbEntity
  8
0
  6
Continuous
 62
     7
370
    25
100
AcDbPolyline
 90
       54
 70
   128
 43
0.0
 10
290.7331100982
 20
12.4764188241
 10
290.7342275244
 20
12.4757736428
 10
291.5393457346
 20
11.9529006271
 10
292.2913538968
 20
11.3450346172
 10
292.9875080149
 20
10.6543936501
 10
293.625267898
 20
9.8834977998
 10
294.2023064294
 20
9.0351599818
 10
294.7165180582
 20
8.1124756887
 10
295.1660264818
 20
7.1188116954
 10
295.5491914928
 20
6.057793774
 10
295.8646149635
 20
4.933293464
 10
296.111145948
 20
3.749413945
 10
296.2878848815
 20
2.510475065
 10
296.3941868626
 20
1.2209975775
 10
296.4296640071
 20
-0.1143133538
 10
296.3941868626
 20
-1.4905853243
 10
296.2878848815
 20
-2.9027964667
 10
296.111145948
 20
-4.3457937757
 10
295.8646149635
 20
-5.8143119108
 10
295.5491914928
 20
-7.3029924083
 10
295.1660264818
 20
-8.8064032347
 10
294.7165180582
 20
-10.3190586068
 10
294.2023064294
 20
-11.8354390094
 10
293.625267898
 20
-13.3500113346
 10
292.9875080149
 20
-14.8572490724
 10
292.2913538968
 20
-16.3516524757
 10
291.5393457346
 20
-17.8277686285
 10
290.7342275244
 20
-19.2802113432
 10
289.8789370555
 20
-20.7036808137
 10
288.9765951898
 20
-22.0929829542
 10
288.030494475
 20
-23.4430483521
 10
287.0440871301
 20
-24.748950765
 10
286.0209724484
 20
-26.0059250966
 10
284.9648836645
 20
-27.2093847839
 10
283.8796743319
 20
-28.3549385331
 10
282.7693042616
 20
-29.4384063428
 10
281.6378250736
 20
-30.4558347563
 10
280.4893654129
 20
-31.4035112878
 10
279.3281158842
 20
-32.2779779684
 10
278.158313761
 20
-33.076043964
 10
276.9842275244
 20
-33.7947972182
 10
275.8101412879
 20
-34.4316150785
 10
274.6403391647
 20
-34.9841738655
 10
273.479089636
 20
-35.4504573522
 10
272.3306299752
 20
-35.8287641206
 10
271.1991507873
 20
-36.1177137704
 10
270.088780717
 20
-36.3162519557
 10
269.0035713844
 20
-36.4236542321
 10
267.9474826005
 20
-36.4395287003
 10
266.9243679188
 20
-36.3638174363
 10
265.9379605739
 20
-36.1967967021
 10
264.9918598591
 20
-35.9390759383
 10
264.0895179934
 20
-35.59159554
 10
263.2353449507
 20
-35.1562686068
  0
LINE
  5
12F
330
1F
100
AcDbEntity
  8
0
  6
Continuous
 62
     7
370
    25
100
AcDbLine
 10
276.9842275244
 20
-39.6257283442
 30
0.0
 11
284.0552953363
 21
-43.7077689033
 31
0.0
  0
LINE
  5
130
330
1F
100
AcDbEntity
  8
0
  6
Continuous
 62
     7
370
    25
100
AcDbLine
 10
276.9842275244
 20
-39.6257283442
 30
0.0
 11
298.19743096
 21
-13.2367049404
 31
0.0
  0
LINE
  5
131
330
1F
100
AcDbEntity
  8
0
  6
Continuous
 62
     7
370
    25
100
AcDbLine
 10
298.19743096
 20
-13.2367049404
 30
0.0
 11
305.2684987719
 21
-17.3187454995
 31
0.0
  0
LINE
  5
132
330
1F
100
AcDbEntity
  8
0
  6
Continuous
 62
     7
370
    25
100
AcDbLine
 10
284.0552953363
 20
-43.7077689033
 30
0.0
 11
305.2684987719
 21
-17.3187454995
 31
0.0
  0
LINE
  5
133
330
1F
100
AcDbEntity
  8
0
  6
Continuous
 62
     7
370
    25
100
AcDbLine
 10
255.7710240889
 20
-30.8472078942
 30
0.0
 11
255.7710240889
 21
-37.7289482951
 31
0.0
  0
LINE
  5
134
330
1F
100
AcDbEntity
  8
0
  6
Continuous
 62
     7
370
    25
100
AcDbLine
 10
298.19743096
 20
15.0490985124
 30
0.0
 11
284.0918226655
 21
16.3103524514
 31
0.0
  0
LINE
  5
135
330
1F
100
AcDbEntity
  8
0
  6
Continuous
 62
     7
370
    25
100
AcDbLine
 10
298.19743096
 20
-13.2367049404
 30
0.0
 11
298.19743096
 21
15.0490985124
 31
0.0
  0
LINE
  5
136
330
1F
100
AcDbEntity
  8
0
  6
Continuous
 62
     7
370
    25
100
AcDbLine
 10
255.7710240889
 20
-37.7289482951
 30
0.0
 11
276.9842275244
 21
-39.6257283442
 31
0.0
  0
LINE
  5
137
330
1F
100
AcDbEntity
  8
0
  6
Continuous
 62
     7
370
    25
100
AcDbLine
 10
298.19743096
 20
15.0490985124
 30
0.0
 11
305.2684987719
 21
10.9670579533
 31
0.0
  0
LINE
  5
138
330
1F
100
AcDbEntity
  8
0
  6
Continuous
 62
     7
370
    25
100
AcDbLine
 10
305.2684987719
 20
-17.3187454995
 30
0.0
 11
305.2684987719
 21
10.9670579533
 31
0.0
  0
LWPOLYLINE
  5
139
330
1F
100
AcDbEntity
  8
0
  6
Continuous
 62
     7
370
    25
100
AcDbPolyline
 90
       44
 70
   128
 43
0.0
 10
305.2684987719
 20
-0.1343407924
 10
305.6799675039
 20
-0.4620014784
 10
306.3403818222
 20
-1.0886294429
 10
306.9429149622
 20
-1.7959221958
 10
307.4850396904
 20
-2.5809131056
 10
307.9644821472
 20
-3.4403096476
 10
308.3792313845
 20
-4.3705072139
 10
308.7275477998
 20
-5.3676042328
 10
309.0079704329
 20
-6.4274185329
 10
309.2193230939
 20
-7.5455048846
 10
309.3607192963
 20
-8.7171736452
 10
309.4315659754
 20
-9.9375104289
 10
309.4315659754
 20
-11.2013967189
 10
309.3607192963
 20
-12.503531337
 10
309.2193230939
 20
-13.838452678
 10
309.0079704329
 20
-15.200561618
 10
308.7275477998
 20
-16.5841449986
 10
308.3792313845
 20
-17.9833995904
 10
307.9644821472
 20
-19.3924564333
 10
307.4850396904
 20
-20.8054054533
 10
306.9429149622
 20
-22.216320251
 10
306.3403818222
 20
-23.6192829596
 10
305.6799675039
 20
-25.0084090658
 10
304.9644420143
 20
-26.3778720921
 10
304.196806516
 20
-27.7219280344
 10
303.380280739
 20
-29.0349394553
 10
302.5182894763
 20
-30.3113991283
 10
301.6144482188
 20
-31.5459531382
 10
300.6725479908
 20
-32.7334233362
 10
299.6965394491
 20
-33.8688290598
 10
298.6905163129
 20
-34.9474080227
 10
297.6586981927
 20
-35.96463629
 10
296.6054128924
 20
-36.9162472527
 10
295.5350782564
 20
-37.7982495238
 10
294.4521836404
 20
-38.6069436793
 10
293.3612710805
 20
-39.3389377748
 10
292.2669162432
 20
-39.9911615726
 10
291.1737092331
 20
-40.5608794196
 10
290.0862353401
 20
-41.0457017211
 10
289.0090558078
 20
-41.4435949638
 10
287.9466887015
 20
-41.7528902453
 10
286.9035899579
 20
-41.9722902736
 10
285.8841346958
 20
-42.1008748087
 10
285.3210943082
 20
-42.133127016
  0
LINE
  5
13A
330
1F
100
AcDbEntity
  8
0
  6
Continuous
 62
     7
370
    25
100
AcDbLine
 10
255.7710240889
 20
-37.7289482951
 30
0.0
 11
262.8420919007
 21
-41.8109888542
 31
0.0
  0
LINE
  5
13B
330
1F
100
AcDbEntity
  8
0
  6
Continuous
 62
     7
370
    25
100
AcDbLine
 10
262.8420919007
 20
-41.8109888542
 30
0.0
 11
284.0552953363
 21
-43.7077689033
 31
0.0
  0
LWPOLYLINE
  5
13C
330
1F
100
AcDbEntity
  8
0
  6
Continuous
 62
     7
370
    25
100
AcDbPolyline
 90
       48
 70
   128
 43
0.0
 10
305.2684987719
 20
-0.1085656551
 10
305.6110200783
 20
-0.2773118484
 10
306.3786555766
 20
-0.7350747097
 10
307.0941810663
 20
-1.2784095903
 10
307.7545953846
 20
-1.9050375547
 10
308.3571285246
 20
-2.6123303077
 10
308.8992532527
 20
-3.3973212174
 10
309.3786957096
 20
-4.2567177594
 10
309.7934449469
 20
-5.1869153257
 10
310.1417613621
 20
-6.1840123447
 10
310.4221839953
 20
-7.2438266447
 10
310.6335366563
 20
-8.3619129964
 10
310.7749328587
 20
-9.5335817571
 10
310.8457795377
 20
-10.7539185407
 10
310.8457795377
 20
-12.0178048307
 10
310.7749328587
 20
-13.3199394488
 10
310.6335366563
 20
-14.6548607898
 10
310.4221839953
 20
-16.0169697298
 10
310.1417613621
 20
-17.4005531105
 10
309.7934449469
 20
-18.7998077023
 10
309.3786957096
 20
-20.2088645452
 10
308.8992532527
 20
-21.6218135651
 10
308.3571285246
 20
-23.0327283629
 10
307.7545953846
 20
-24.4356910714
 10
307.0941810663
 20
-25.8248171777
 10
306.3786555766
 20
-27.1942802039
 10
305.6110200783
 20
-28.5383361463
 10
304.7944943014
 20
-29.8513475671
 10
303.9325030387
 20
-31.1278072402
 10
303.0286617812
 20
-32.36236125
 10
302.0867615532
 20
-33.5498314481
 10
301.1107530115
 20
-34.6852371716
 10
300.1047298753
 20
-35.7638161345
 10
299.0729117551
 20
-36.7810444018
 10
298.0196264547
 20
-37.7326553645
 10
296.9492918188
 20
-38.6146576356
 10
295.8663972027
 20
-39.4233517911
 10
294.7754846429
 20
-40.1553458866
 10
293.6811298056
 20
-40.8075696844
 10
292.5879227954
 20
-41.3772875314
 10
291.5004489025
 20
-41.8621098329
 10
290.4232693702
 20
-42.2600030756
 10
289.3609022639
 20
-42.5692983571
 10
288.3178035203
 20
-42.7886983854
 10
287.2983482582
 20
-42.9172829205
 10
286.3068124272
 20
-42.9545126343
 10
285.3473548731
 20
-42.9002313723
 10
284.7686159926
 20
-42.8204047883
  0
LWPOLYLINE
  5
13D
330
1F
100
AcDbEntity
  8
0
  6
Continuous
 62
     7
370
    25
100
AcDbPolyline
 90
       50
 70
   128
 43
0.0
 10
306.5899921694
 20
-0.8827207081
 10
307.0252336407
 20
-1.0937199602
 10
307.792869139
 20
-1.5514828215
 10
308.5083946286
 20
-2.0948177021
 10
309.168808947
 20
-2.7214456666
 10
309.771342087
 20
-3.4287384195
 10
310.3134668151
 20
-4.2137293292
 10
310.792909272
 20
-5.0731258712
 10
311.2076585093
 20
-6.0033234376
 10
311.5559749245
 20
-7.0004204565
 10
311.8363975576
 20
-8.0602347565
 10
312.0477502187
 20
-9.1783211082
 10
312.1891464211
 20
-10.3499898689
 10
312.2599931001
 20
-11.5703266525
 10
312.2599931001
 20
-12.8342129425
 10
312.1891464211
 20
-14.1363475606
 10
312.0477502187
 20
-15.4712689017
 10
311.8363975576
 20
-16.8333778416
 10
311.5559749245
 20
-18.2169612223
 10
311.2076585093
 20
-19.6162158141
 10
310.792909272
 20
-21.025272657
 10
310.3134668151
 20
-22.4382216769
 10
309.771342087
 20
-23.8491364747
 10
309.168808947
 20
-25.2520991833
 10
308.5083946286
 20
-26.6412252895
 10
307.792869139
 20
-28.0106883157
 10
307.0252336407
 20
-29.3547442581
 10
306.2087078638
 20
-30.6677556789
 10
305.3467166011
 20
-31.944215352
 10
304.4428753436
 20
-33.1787693618
 10
303.5009751155
 20
-34.3662395599
 10
302.5249665739
 20
-35.5016452834
 10
301.5189434377
 20
-36.5802242464
 10
300.4871253175
 20
-37.5974525136
 10
299.4338400171
 20
-38.5490634763
 10
298.3635053812
 20
-39.4310657475
 10
297.2806107651
 20
-40.2397599029
 10
296.1896982052
 20
-40.9717539984
 10
295.095343368
 20
-41.6239777963
 10
294.0021363578
 20
-42.1936956433
 10
292.9146624649
 20
-42.6785179447
 10
291.8374829326
 20
-43.0764111875
 10
290.7751158262
 20
-43.3857064689
 10
289.7320170827
 20
-43.6051064972
 10
288.7125618206
 20
-43.7336910323
 10
287.7210259896
 20
-43.7709207461
 10
286.7615684355
 20
-43.7166394841
 10
285.8382134568
 20
-43.5710749209
 10
284.9548339251
 20
-43.3348376049
 10
284.4896091782
 20
-43.1674866129
  0
LWPOLYLINE
  5
13E
330
1F
100
AcDbEntity
  8
0
  6
Continuous
 62
     7
370
    25
100
AcDbPolyline
 90
       52
 70
   128
 43
0.0
 10
308.0042057318
 20
-1.6991288199
 10
308.4394472031
 20
-1.910128072
 10
309.2070827014
 20
-2.3678909334
 10
309.922608191
 20
-2.9112258139
 10
310.5830225094
 20
-3.5378537784
 10
311.1855556493
 20
-4.2451465313
 10
311.7276803775
 20
-5.0301374411
 10
312.2071228344
 20
-5.889533983
 10
312.6218720716
 20
-6.8197315494
 10
312.9701884869
 20
-7.8168285683
 10
313.25061112
 20
-8.8766428684
 10
313.461963781
 20
-9.9947292201
 10
313.6033599835
 20
-11.1663979807
 10
313.6742066625
 20
-12.3867347643
 10
313.6742066625
 20
-13.6506210543
 10
313.6033599835
 20
-14.9527556724
 10
313.461963781
 20
-16.2876770135
 10
313.25061112
 20
-17.6497859535
 10
312.9701884869
 20
-19.0333693341
 10
312.6218720716
 20
-20.4326239259
 10
312.2071228344
 20
-21.8416807688
 10
311.7276803775
 20
-23.2546297888
 10
311.1855556493
 20
-24.6655445865
 10
310.5830225094
 20
-26.0685072951
 10
309.922608191
 20
-27.4576334013
 10
309.2070827014
 20
-28.8270964275
 10
308.4394472031
 20
-30.1711523699
 10
307.6229214261
 20
-31.4841637907
 10
306.7609301635
 20
-32.7606234638
 10
305.8570889059
 20
-33.9951774736
 10
304.9151886779
 20
-35.1826476717
 10
303.9391801363
 20
-36.3180533953
 10
302.933157
 20
-37.3966323582
 10
301.9013388798
 20
-38.4138606254
 10
300.8480535795
 20
-39.3654715882
 10
299.7777189436
 20
-40.2474738593
 10
298.6948243275
 20
-41.0561680147
 10
297.6039117676
 20
-41.7881621102
 10
296.5095569303
 20
-42.4403859081
 10
295.4163499202
 20
-43.0101037551
 10
294.3288760272
 20
-43.4949260566
 10
293.2516964949
 20
-43.8928192993
 10
292.1893293886
 20
-44.2021145807
 10
291.1462306451
 20
-44.421514609
 10
290.126775383
 20
-44.5500991442
 10
289.1352395519
 20
-44.5873288579
 10
288.1757819979
 20
-44.533047596
 10
287.2524270192
 20
-44.3874830328
 10
286.3690474875
 20
-44.1512457167
 10
285.5293486036
 20
-43.8253265091
 10
284.7368523564
 20
-43.4110924285
 10
284.4421493679
 20
-43.2265261658
  0
LWPOLYLINE
  5
13F
330
1F
100
AcDbEntity
  8
0
  6
Continuous
 62
     1
370
    25
100
AcDbPolyline
 90
       66
 70
   128
 43
0.0
 10
265.9990015078
 20
23.86844263
 10
266.7705073125
 20
23.9158283903
 10
267.807240138
 20
23.9020258849
 10
268.8097193839
 20
23.7966032014
 10
269.7742157617
 20
23.5999525189
 10
270.6971412813
 20
23.312805391
 10
271.5750625993
 20
22.9362300239
 10
272.4047137907
 20
22.4716273025
 10
273.1830084986
 20
21.9207255796
 10
273.9070514156
 20
21.2855742458
 10
274.5741490544
 20
20.5685361057
 10
275.181819768
 20
19.7722785883
 10
275.7278029814
 20
18.8997638238
 10
276.2100676013
 20
17.9542376246
 10
276.6268195715
 20
16.9392174101
 10
276.9765085474
 20
15.8584791223
 10
277.2578336631
 20
14.7160431785
 10
277.4697483705
 20
13.5161595155
 10
277.6114643331
 20
12.2632917793
 10
277.6824543581
 20
10.9621007203
 10
277.6824543581
 20
9.6174268545
 10
277.6114643331
 20
8.2342724571
 10
277.4697483705
 20
6.8177829533
 10
277.2578336631
 20
5.3732277771
 10
276.9765085474
 20
3.9059807686
 10
276.6268195715
 20
2.4215001831
 10
276.2100676013
 20
0.9253083858
 10
275.7278029814
 20
-0.5770286915
 10
275.181819768
 20
-2.0799222562
 10
274.5741490544
 20
-3.5777814455
 10
273.9070514156
 20
-5.0650341249
 10
273.1830084986
 20
-6.5361476166
 10
272.4047137907
 20
-7.985649282
 10
271.5750625993
 20
-9.4081468796
 10
270.6971412813
 20
-10.798348625
 10
269.7742157617
 20
-12.1510828762
 10
268.8097193839
 20
-13.4613173731
 10
267.807240138
 20
-14.7241779572
 10
266.7705073125
 20
-15.9349667043
 10
265.7033776217
 20
-17.0891794006
 10
264.609820858
 20
-18.1825222992
 10
263.4939051244
 20
-19.2109280927
 10
262.3597817009
 20
-20.1705710439
 10
261.211669601
 20
-21.057881218
 10
260.053839877
 20
-21.869557763
 10
258.8905997318
 20
-22.6025811887
 10
257.7262764949
 20
-23.2542245999
 10
256.5652015253
 20
-23.8220638402
 10
255.4116940982
 20
-24.3039865105
 10
254.270045337
 20
-24.6981998267
 10
253.1445022499
 20
-25.0032372894
 10
252.0392519313
 20
-25.2179641392
 10
250.9584059848
 20
-25.341581578
 10
249.9059852285
 20
-25.3736297411
 10
248.8859047367
 20
-25.3139894069
 10
247.9019592757
 20
-25.1628824416
 10
246.9578091873
 20
-24.9208709729
 10
246.056966772
 20
-24.5888552995
 10
245.2027832225
 20
-24.1680705413
 10
244.3984361578
 20
-23.6600820454
 10
243.6469178019
 20
-23.0667795624
 10
242.9510238524
 20
-22.3903702163
 10
242.3133430804
 20
-21.6333702945
 10
241.7362477004
 20
-20.7985958863
 10
241.221884545
 20
-19.8891524075
 10
241.0010331919
 20
-19.434000489
  0
LWPOLYLINE
  5
140
330
1F
100
AcDbEntity
  8
0
  6
Continuous
 62
     1
370
    25
100
AcDbPolyline
 90
       49
 70
   128
 43
0.0
 10
274.5165766822
 20
21.5157326978
 10
274.9562850947
 20
21.0635970758
 10
275.5940449778
 20
20.2927012256
 10
276.1710835092
 20
19.4443634075
 10
276.6852951379
 20
18.5216791144
 10
277.1348035616
 20
17.5280151211
 10
277.5179685725
 20
16.4669971998
 10
277.8333920433
 20
15.3424968898
 10
278.0799230278
 20
14.1586173708
 10
278.2566619612
 20
12.9196784907
 10
278.3629639424
 20
11.6302010033
 10
278.3984410868
 20
10.2948900719
 10
278.3629639424
 20
8.9186181015
 10
278.2566619612
 20
7.5064069591
 10
278.0799230278
 20
6.06340965
 10
277.8333920433
 20
4.594891515
 10
277.5179685725
 20
3.1062110174
 10
277.1348035616
 20
1.6028001911
 10
276.6852951379
 20
0.0901448189
 10
276.1710835092
 20
-1.4262355836
 10
275.5940449778
 20
-2.9408079089
 10
274.9562850947
 20
-4.4480456467
 10
274.2601309765
 20
-5.94244905
 10
273.5081228143
 20
-7.4185652028
 10
272.7030046042
 20
-8.8710079174
 10
271.8477141352
 20
-10.2944773879
 10
270.9453722695
 20
-11.6837795285
 10
269.9992715548
 20
-13.0338449263
 10
269.0128642098
 20
-14.3397473392
 10
267.9897495282
 20
-15.5967216708
 10
266.9336607443
 20
-16.8001813582
 10
265.8484514116
 20
-17.9457351074
 10
264.7380813413
 20
-19.029202917
 10
263.6066021534
 20
-20.0466313306
 10
262.4581424927
 20
-20.9943078621
 10
261.2968929639
 20
-21.8687745427
 10
260.1270908407
 20
-22.6668405382
 10
258.9530046042
 20
-23.3855937925
 10
257.7789183676
 20
-24.0224116528
 10
256.6091162445
 20
-24.5749704398
 10
255.4478667157
 20
-25.0412539265
 10
254.299407055
 20
-25.4195606949
 10
253.1679278671
 20
-25.7085103447
 10
252.0575577968
 20
-25.9070485299
 10
250.9723484641
 20
-26.0144508063
 10
249.9162596802
 20
-26.0303252746
 10
248.8931449985
 20
-25.9546140105
 10
247.9067376536
 20
-25.7875932763
 10
247.2381118954
 20
-25.6160993307
  0
LINE
  5
141
330
1F
100
AcDbEntity
  8
0
  6
Continuous
 62
     7
370
    25
100
AcDbLine
 10
112.3323425481
 20
14.5585077036
 30
0.0
 11
112.3323425481
 21
-10.9414922964
 31
0.0
  0
LINE
  5
142
330
1F
100
AcDbEntity
  8
0
  6
Continuous
 62
     7
370
    25
100
AcDbLine
 10
167.3323425481
 20
-10.9414922964
 30
0.0
 11
167.3323425481
 21
14.5585077036
 31
0.0
  0
ARC
  5
143
330
1F
100
AcDbEntity
  8
0
  6
Continuous
 62
     7
370
    25
100
AcDbCircle
 10
112.8323425481
 20
-10.9414922964
 30
0.0
 40
0.5
100
AcDbArc
 50
180.0
 51
270.0
  0
ARC
  5
144
330
1F
100
AcDbEntity
  8
0
  6
Continuous
 62
     7
370
    25
100
AcDbCircle
 10
166.8323425481
 20
-10.9414922964
 30
0.0
 40
0.5
100
AcDbArc
 50
270.0
 51
0.0
  0
LINE
  5
145
330
1F
100
AcDbEntity
  8
0
  6
Continuous
 62
     7
370
    25
100
AcDbLine
 10
114.8323425481
 20
-11.4414922964
 30
0.0
 11
114.8323425481
 21
-68.4414922964
 31
0.0
  0
LINE
  5
146
330
1F
100
AcDbEntity
  8
0
  6
Continuous
 62
     7
370
    25
100
AcDbLine
 10
164.8323425481
 20
-68.4414922964
 30
0.0
 11
164.8323425481
 21
-11.4414922964
 31
0.0
  0
LINE
  5
147
330
1F
100
AcDbEntity
  8
0
  6
Continuous
 62
     7
370
    25
100
AcDbLine
 10
163.7323425481
 20
42.5585077036
 30
0.0
 11
162.0002917405
 21
43.5585077036
 31
0.0
  0
LINE
  5
148
330
1F
100
AcDbEntity
  8
0
  6
Continuous
 62
     7
370
    25
100
AcDbLine
 10
117.6643933556
 20
43.5585077036
 30
0.0
 11
115.9323425481
 21
42.5585077036
 31
0.0
  0
LINE
  5
149
330
1F
100
AcDbEntity
  8
0
  6
Continuous
 62
     7
370
    25
100
AcDbLine
 10
115.9323425481
 20
42.5585077036
 30
0.0
 11
117.6643933556
 21
41.5585077036
 31
0.0
  0
LINE
  5
14A
330
1F
100
AcDbEntity
  8
0
  6
Continuous
 62
     7
370
    25
100
AcDbLine
 10
162.0002917405
 20
41.5585077036
 30
0.0
 11
163.7323425481
 21
42.5585077036
 31
0.0
  0
LINE
  5
14B
330
1F
100
AcDbEntity
  8
0
  6
Continuous
 62
     7
370
    25
100
AcDbLine
 10
163.7323425481
 20
40.5585077036
 30
0.0
 11
162.0002917405
 21
41.5585077036
 31
0.0
  0
LINE
  5
14C
330
1F
100
AcDbEntity
  8
0
  6
Continuous
 62
     7
370
    25
100
AcDbLine
 10
117.6643933556
 20
41.5585077036
 30
0.0
 11
115.9323425481
 21
40.5585077036
 31
0.0
  0
LINE
  5
14D
330
1F
100
AcDbEntity
  8
0
  6
Continuous
 62
     7
370
    25
100
AcDbLine
 10
115.9323425481
 20
40.5585077036
 30
0.0
 11
117.6643933556
 21
39.5585077036
 31
0.0
  0
LINE
  5
14E
330
1F
100
AcDbEntity
  8
0
  6
Continuous
 62
     7
370
    25
100
AcDbLine
 10
162.0002917405
 20
39.5585077036
 30
0.0
 11
163.7323425481
 21
40.5585077036
 31
0.0
  0
LINE
  5
14F
330
1F
100
AcDbEntity
  8
0
  6
Continuous
 62
     7
370
    25
100
AcDbLine
 10
163.7323425481
 20
38.5585077036
 30
0.0
 11
162.0002917405
 21
39.5585077036
 31
0.0
  0
LINE
  5
150
330
1F
100
AcDbEntity
  8
0
  6
Continuous
 62
     7
370
    25
100
AcDbLine
 10
117.6643933556
 20
39.5585077036
 30
0.0
 11
115.9323425481
 21
38.5585077036
 31
0.0
  0
LINE
  5
151
330
1F
100
AcDbEntity
  8
0
  6
Continuous
 62
     7
370
    25
100
AcDbLine
 10
115.9323425481
 20
38.5585077036
 30
0.0
 11
117.6643933556
 21
37.5585077036
 31
0.0
  0
LINE
  5
152
330
1F
100
AcDbEntity
  8
0
  6
Continuous
 62
     7
370
    25
100
AcDbLine
 10
162.0002917405
 20
37.5585077036
 30
0.0
 11
163.7323425481
 21
38.5585077036
 31
0.0
  0
LINE
  5
153
330
1F
100
AcDbEntity
  8
0
  6
Continuous
 62
     7
370
    25
100
AcDbLine
 10
163.7323425481
 20
36.5585077036
 30
0.0
 11
162.0002917405
 21
37.5585077036
 31
0.0
  0
LINE
  5
154
330
1F
100
AcDbEntity
  8
0
  6
Continuous
 62
     7
370
    25
100
AcDbLine
 10
117.6643933556
 20
37.5585077036
 30
0.0
 11
115.9323425481
 21
36.5585077036
 31
0.0
  0
LINE
  5
155
330
1F
100
AcDbEntity
  8
0
  6
Continuous
 62
     7
370
    25
100
AcDbLine
 10
115.9323425481
 20
36.5585077036
 30
0.0
 11
115.9323425481
 21
24.5585077036
 31
0.0
  0
LINE
  5
156
330
1F
100
AcDbEntity
  8
0
  6
Continuous
 62
     7
370
    25
100
AcDbLine
 10
163.7323425481
 20
24.5585077036
 30
0.0
 11
163.7323425481
 21
36.5585077036
 31
0.0
  0
LINE
  5
157
330
1F
100
AcDbEntity
  8
0
  6
Continuous
 62
     7
370
    25
100
AcDbLine
 10
139.8323425481
 20
14.5585077036
 30
0.0
 11
139.8323425481
 21
24.5585077036
 31
0.0
  0
LINE
  5
158
330
1F
100
AcDbEntity
  8
0
  6
Continuous
 62
     7
370
    25
100
AcDbLine
 10
139.8323425481
 20
14.5585077036
 30
0.0
 11
109.8323425481
 21
14.5585077036
 31
0.0
  0
LINE
  5
159
330
1F
100
AcDbEntity
  8
0
  6
Continuous
 62
     7
370
    25
100
AcDbLine
 10
109.8323425481
 20
14.5585077036
 30
0.0
 11
109.8323425481
 21
24.5585077036
 31
0.0
  0
LINE
  5
15A
330
1F
100
AcDbEntity
  8
0
  6
Continuous
 62
     7
370
    25
100
AcDbLine
 10
139.8323425481
 20
24.5585077036
 30
0.0
 11
109.8323425481
 21
24.5585077036
 31
0.0
  0
LINE
  5
15B
330
1F
100
AcDbEntity
  8
0
  6
Continuous
 62
     7
370
    25
100
AcDbLine
 10
169.8323425481
 20
14.5585077036
 30
0.0
 11
169.8323425481
 21
24.5585077036
 31
0.0
  0
LINE
  5
15C
330
1F
100
AcDbEntity
  8
0
  6
Continuous
 62
     7
370
    25
100
AcDbLine
 10
169.8323425481
 20
14.5585077036
 30
0.0
 11
139.8323425481
 21
14.5585077036
 31
0.0
  0
LINE
  5
15D
330
1F
100
AcDbEntity
  8
0
  6
Continuous
 62
     7
370
    25
100
AcDbLine
 10
169.8323425481
 20
24.5585077036
 30
0.0
 11
139.8323425481
 21
24.5585077036
 31
0.0
  0
LINE
  5
15E
330
1F
100
AcDbEntity
  8
0
  6
Continuous
 62
     7
370
    25
100
AcDbLine
 10
112.8323425481
 20
-11.4414922964
 30
0.0
 11
166.8323425478
 21
-11.4414922964
 31
0.0
  0
LINE
  5
15F
330
1F
100
AcDbEntity
  8
0
  6
Continuous
 62
     7
370
    25
100
AcDbLine
 10
114.8323425481
 20
-68.4414922964
 30
0.0
 11
164.8323425481
 21
-68.4414922964
 31
0.0
  0
LINE
  5
160
330
1F
100
AcDbEntity
  8
0
  6
Continuous
 62
     7
370
    25
100
AcDbLine
 10
115.9323425481
 20
42.5585077036
 30
0.0
 11
163.7323425481
 21
42.5585077036
 31
0.0
  0
LINE
  5
161
330
1F
100
AcDbEntity
  8
0
  6
Continuous
 62
     7
370
    25
100
AcDbLine
 10
117.6643933556
 20
43.5585077036
 30
0.0
 11
162.0002917405
 21
43.5585077036
 31
0.0
  0
LINE
  5
162
330
1F
100
AcDbEntity
  8
0
  6
Continuous
 62
     7
370
    25
100
AcDbLine
 10
117.6643933556
 20
41.5585077036
 30
0.0
 11
162.0002917405
 21
41.5585077036
 31
0.0
  0
LINE
  5
163
330
1F
100
AcDbEntity
  8
0
  6
Continuous
 62
     7
370
    25
100
AcDbLine
 10
115.9323425481
 20
40.5585077036
 30
0.0
 11
163.7323425481
 21
40.5585077036
 31
0.0
  0
LINE
  5
164
330
1F
100
AcDbEntity
  8
0
  6
Continuous
 62
     7
370
    25
100
AcDbLine
 10
117.6643933556
 20
39.5585077036
 30
0.0
 11
162.0002917405
 21
39.5585077036
 31
0.0
  0
LINE
  5
165
330
1F
100
AcDbEntity
  8
0
  6
Continuous
 62
     7
370
    25
100
AcDbLine
 10
115.9323425481
 20
38.5585077036
 30
0.0
 11
163.7323425481
 21
38.5585077036
 31
0.0
  0
LINE
  5
166
330
1F
100
AcDbEntity
  8
0
  6
Continuous
 62
     7
370
    25
100
AcDbLine
 10
117.6643933556
 20
37.5585077036
 30
0.0
 11
162.0002917405
 21
37.5585077036
 31
0.0
  0
LINE
  5
167
330
1F
100
AcDbEntity
  8
0
  6
Continuous
 62
     7
370
    25
100
AcDbLine
 10
115.9323425481
 20
36.5585077036
 30
0.0
 11
163.7323425481
 21
36.5585077036
 31
0.0
  0
LINE
  5
168
330
1F
100
AcDbEntity
  8
0
  6
Continuous
 62
     1
370
    25
100
AcDbLine
 10
112.3323425481
 20
-10.9414922964
 30
0.0
 11
167.3323425481
 21
-10.9414922964
 31
0.0
  0
ENDSEC
  0
SECTION
  2
OBJECTS
  0
DICTIONARY
  5
C
330
0
100
AcDbDictionary
281
     1
  3
ACAD_GROUP
350
D
  3
ACAD_LAYOUT
350
1A
  3
ACAD_MLINESTYLE
350
17
  3
ACAD_PLOTSETTINGS
350
19
  3
ACAD_PLOTSTYLENAME
350
E
  3
ACAD_SCALELIST
350
47
  3
DWGPROPS
350
169
  0
DICTIONARY
  5
D
102
{ACAD_REACTORS
330
C
102
}
330
C
100
AcDbDictionary
281
     1
  0
DICTIONARY
  5
1A
102
{ACAD_REACTORS
330
C
102
}
330
C
100
AcDbDictionary
281
     1
  3
Layout1
350
1E
  3
Layout2
350
26
  3
Model
350
22
  0
DICTIONARY
  5
17
102
{ACAD_REACTORS
330
C
102
}
330
C
100
AcDbDictionary
281
     1
  3
Standard
350
18
  0
DICTIONARY
  5
19
102
{ACAD_REACTORS
330
C
102
}
330
C
100
AcDbDictionary
281
     1
  0
ACDBDICTIONARYWDFLT
  5
E
102
{ACAD_REACTORS
330
C
102
}
330
C
100
AcDbDictionary
281
     1
  3
Normal
350
F
100
AcDbDictionaryWithDefault
340
F
  0
DICTIONARY
  5
47
102
{ACAD_REACTORS
330
C
102
}
330
C
100
AcDbDictionary
281
     1
  3
A0
350
48
  3
A1
350
49
  3
A2
350
4A
  3
A3
350
4B
  3
A4
350
4C
  3
A5
350
4D
  3
A6
350
4E
  3
A7
350
4F
  3
A8
350
50
  3
A9
350
51
  3
B0
350
52
  3
B1
350
53
  3
B2
350
54
  3
B3
350
55
  3
B4
350
56
  3
B5
350
57
  3
B6
350
58
  3
B7
350
59
  3
B8
350
5A
  3
B9
350
5B
  3
C0
350
5C
  3
C1
350
5D
  3
C2
350
5E
  3
C3
350
5F
  3
C4
350
60
  3
C5
350
61
  3
C6
350
62
  3
C7
350
63
  3
C8
350
64
  3
C9
350
65
  3
D0
350
66
  3
D1
350
67
  3
D2
350
68
  0
XRECORD
  5
169
102
{ACAD_REACTORS
330
C
102
}
330
C
100
AcDbXrecord
280
     1
  1
DWGPROPS COOKIE
  2

  3

  4

  6

  7

  8
b.kav
  9

300
=
301
=
302
=
303
=
304
=
305
=
306
=
307
=
308
=
309
=
 40
0.0
 41
2459948.454399178
 42
2459948.454399364
  1

 90
        0
  0
LAYOUT
  5
1E
102
{ACAD_REACTORS
330
1A
102
}
330
1A
100
AcDbPlotSettings
  1

  2
none_device
  4

  6

 40
0.0
 41
0.0
 42
0.0
 43
0.0
 44
0.0
 45
0.0
 46
0.0
 47
0.0
 48
0.0
 49
0.0
140
0.0
141
0.0
142
1.0
143
1.0
 70
   688
 72
     1
 73
     0
 74
     5
  7

 75
    16
147
1.0
148
0.0
149
0.0
100
AcDbLayout
  1
Layout1
 70
     1
 71
     1
 10
0.0
 20
0.0
 11
420.0
 21
297.0
 12
0.0
 22
0.0
 32
0.0
 14
1.0000000000E+20
 24
1.0000000000E+20
 34
1.0000000000E+20
 15
-1.0000000000E+20
 25
-1.0000000000E+20
 35
-1.0000000000E+20
146
0.0
 13
0.0
 23
0.0
 33
0.0
 16
1.0
 26
0.0
 36
0.0
 17
0.0
 27
1.0
 37
0.0
 76
     0
330
1B
  0
LAYOUT
  5
26
102
{ACAD_REACTORS
330
1A
102
}
330
1A
100
AcDbPlotSettings
  1

  2
none_device
  4

  6

 40
0.0
 41
0.0
 42
0.0
 43
0.0
 44
0.0
 45
0.0
 46
0.0
 47
0.0
 48
0.0
 49
0.0
140
0.0
141
0.0
142
1.0
143
1.0
 70
   688
 72
     1
 73
     0
 74
     5
  7

 75
    16
147
1.0
148
0.0
149
0.0
100
AcDbLayout
  1
Layout2
 70
     1
 71
     2
 10
0.0
 20
0.0
 11
0.0
 21
0.0
 12
0.0
 22
0.0
 32
0.0
 14
0.0
 24
0.0
 34
0.0
 15
0.0
 25
0.0
 35
0.0
146
0.0
 13
0.0
 23
0.0
 33
0.0
 16
1.0
 26
0.0
 36
0.0
 17
0.0
 27
1.0
 37
0.0
 76
     0
330
23
  0
LAYOUT
  5
22
102
{ACAD_REACTORS
330
1A
102
}
330
1A
100
AcDbPlotSettings
  1

  2
none_device
  4
Letter_(8.50_x_11.00_Inches)
  6

 40
6.35
 41
6.35
 42
6.35000508
 43
6.35000508
 44
215.9
 45
279.4
 46
0.0
 47
0.0
 48
0.0
 49
0.0
140
0.0
141
0.0
142
1.0
143
1.0
 70
  1712
 72
     1
 73
     0
 74
     0
  7

 75
     0
147
1.0
148
0.0
149
0.0
100
AcDbLayout
  1
Model
 70
     1
 71
     0
 10
0.0
 20
0.0
 11
279.4
 21
215.9
 12
0.0
 22
0.0
 32
0.0
 14
0.0
 24
0.0
 34
0.0
 15
279.4
 25
215.9
 35
0.0
146
0.0
 13
0.0
 23
0.0
 33
0.0
 16
1.0
 26
0.0
 36
0.0
 17
0.0
 27
1.0
 37
0.0
 76
     0
330
1F
331
29
  0
MLINESTYLE
  5
18
102
{ACAD_REACTORS
330
17
102
}
330
17
100
AcDbMlineStyle
  2
Standard
 70
     0
  3

 62
   256
 51
90.0
 52
90.0
 71
     2
 49
0.5
 62
   256
  6
BYLAYER
 49
-0.5
 62
   256
  6
BYLAYER
  0
ACDBPLACEHOLDER
  5
F
102
{ACAD_REACTORS
330
E
102
}
330
E
  0
SCALE
  5
48
102
{ACAD_REACTORS
330
47
102
}
330
47
100
AcDbScale
 70
     0
300
1:1
140
1.0
141
1.0
290
     1
  0
SCALE
  5
49
102
{ACAD_REACTORS
330
47
102
}
330
47
100
AcDbScale
 70
     0
300
1:2
140
1.0
141
2.0
290
     0
  0
SCALE
  5
4A
102
{ACAD_REACTORS
330
47
102
}
330
47
100
AcDbScale
 70
     0
300
1:4
140
1.0
141
4.0
290
     0
  0
SCALE
  5
4B
102
{ACAD_REACTORS
330
47
102
}
330
47
100
AcDbScale
 70
     0
300
1:5
140
1.0
141
5.0
290
     0
  0
SCALE
  5
4C
102
{ACAD_REACTORS
330
47
102
}
330
47
100
AcDbScale
 70
     0
300
1:8
140
1.0
141
8.0
290
     0
  0
SCALE
  5
4D
102
{ACAD_REACTORS
330
47
102
}
330
47
100
AcDbScale
 70
     0
300
1:10
140
1.0
141
10.0
290
     0
  0
SCALE
  5
4E
102
{ACAD_REACTORS
330
47
102
}
330
47
100
AcDbScale
 70
     0
300
1:16
140
1.0
141
16.0
290
     0
  0
SCALE
  5
4F
102
{ACAD_REACTORS
330
47
102
}
330
47
100
AcDbScale
 70
     0
300
1:20
140
1.0
141
20.0
290
     0
  0
SCALE
  5
50
102
{ACAD_REACTORS
330
47
102
}
330
47
100
AcDbScale
 70
     0
300
1:30
140
1.0
141
30.0
290
     0
  0
SCALE
  5
51
102
{ACAD_REACTORS
330
47
102
}
330
47
100
AcDbScale
 70
     0
300
1:40
140
1.0
141
40.0
290
     0
  0
SCALE
  5
52
102
{ACAD_REACTORS
330
47
102
}
330
47
100
AcDbScale
 70
     0
300
1:50
140
1.0
141
50.0
290
     0
  0
SCALE
  5
53
102
{ACAD_REACTORS
330
47
102
}
330
47
100
AcDbScale
 70
     0
300
1:100
140
1.0
141
100.0
290
     0
  0
SCALE
  5
54
102
{ACAD_REACTORS
330
47
102
}
330
47
100
AcDbScale
 70
     0
300
2:1
140
2.0
141
1.0
290
     0
  0
SCALE
  5
55
102
{ACAD_REACTORS
330
47
102
}
330
47
100
AcDbScale
 70
     0
300
4:1
140
4.0
141
1.0
290
     0
  0
SCALE
  5
56
102
{ACAD_REACTORS
330
47
102
}
330
47
100
AcDbScale
 70
     0
300
8:1
140
8.0
141
1.0
290
     0
  0
SCALE
  5
57
102
{ACAD_REACTORS
330
47
102
}
330
47
100
AcDbScale
 70
     0
300
10:1
140
10.0
141
1.0
290
     0
  0
SCALE
  5
58
102
{ACAD_REACTORS
330
47
102
}
330
47
100
AcDbScale
 70
     0
300
100:1
140
100.0
141
1.0
290
     0
  0
SCALE
  5
59
102
{ACAD_REACTORS
330
47
102
}
330
47
100
AcDbScale
 70
     0
300
1/128" = 1'-0"
140
0.0078125
141
12.0
290
     0
  0
SCALE
  5
5A
102
{ACAD_REACTORS
330
47
102
}
330
47
100
AcDbScale
 70
     0
300
1/64" = 1'-0"
140
0.015625
141
12.0
290
     0
  0
SCALE
  5
5B
102
{ACAD_REACTORS
330
47
102
}
330
47
100
AcDbScale
 70
     0
300
1/32" = 1'-0"
140
0.03125
141
12.0
290
     0
  0
SCALE
  5
5C
102
{ACAD_REACTORS
330
47
102
}
330
47
100
AcDbScale
 70
     0
300
1/16" = 1'-0"
140
0.0625
141
12.0
290
     0
  0
SCALE
  5
5D
102
{ACAD_REACTORS
330
47
102
}
330
47
100
AcDbScale
 70
     0
300
3/32" = 1'-0"
140
0.09375
141
12.0
290
     0
  0
SCALE
  5
5E
102
{ACAD_REACTORS
330
47
102
}
330
47
100
AcDbScale
 70
     0
300
1/8" = 1'-0"
140
0.125
141
12.0
290
     0
  0
SCALE
  5
5F
102
{ACAD_REACTORS
330
47
102
}
330
47
100
AcDbScale
 70
     0
300
3/16" = 1'-0"
140
0.1875
141
12.0
290
     0
  0
SCALE
  5
60
102
{ACAD_REACTORS
330
47
102
}
330
47
100
AcDbScale
 70
     0
300
1/4" = 1'-0"
140
0.25
141
12.0
290
     0
  0
SCALE
  5
61
102
{ACAD_REACTORS
330
47
102
}
330
47
100
AcDbScale
 70
     0
300
3/8" = 1'-0"
140
0.375
141
12.0
290
     0
  0
SCALE
  5
62
102
{ACAD_REACTORS
330
47
102
}
330
47
100
AcDbScale
 70
     0
300
1/2" = 1'-0"
140
0.5
141
12.0
290
     0
  0
SCALE
  5
63
102
{ACAD_REACTORS
330
47
102
}
330
47
100
AcDbScale
 70
     0
300
3/4" = 1'-0"
140
0.75
141
12.0
290
     0
  0
SCALE
  5
64
102
{ACAD_REACTORS
330
47
102
}
330
47
100
AcDbScale
 70
     0
300
1" = 1'-0"
140
1.0
141
12.0
290
     0
  0
SCALE
  5
65
102
{ACAD_REACTORS
330
47
102
}
330
47
100
AcDbScale
 70
     0
300
1-1/2" = 1'-0"
140
1.5
141
12.0
290
     0
  0
SCALE
  5
66
102
{ACAD_REACTORS
330
47
102
}
330
47
100
AcDbScale
 70
     0
300
3" = 1'-0"
140
3.0
141
12.0
290
     0
  0
SCALE
  5
67
102
{ACAD_REACTORS
330
47
102
}
330
47
100
AcDbScale
 70
     0
300
6" = 1'-0"
140
6.0
141
12.0
290
     0
  0
SCALE
  5
68
102
{ACAD_REACTORS
330
47
102
}
330
47
100
AcDbScale
 70
     0
300
1'-0" = 1'-0"
140
12.0
141
12.0
290
     0
  0
ENDSEC
  0
EOF
